My Ruin - Close Your Eyes Chords & Tabs

 

Close Your Eyes Chords & Tabs

My Ruin Chords & Tabs

Version: 1 Type: Bass Tab 0 ratings
1 star 2 stars 3 stars 4 stars 5 stars
comments

Close Your Eyes Bass Tab

   
-----------------------------------------------------------------------------
			     CLOSE YOUR EYES - My Ruin
-----------------------------------------------------------------------------

Tabbed By : Mazz
e-mail: gonged_out@hotmail.com

Tuning: Standard

Being as I've never seen any correct bass tabs for this song,
I thought I might as well tab it for anybody who wants it.
I actually play guitar not bass, but I figured this one out quite easily.

I'm almost certain it's 100% accurate :D

Hope u like it, please rate me or if you've got any comments, email me!

Main riff:
G|---------------------------------------------------------------------------|
D|---------------------------------------------------------------------------|
A|---------------------------------------------------------------------------|
E|-0-0-2/3\2-----------------------------------------------------------------|

[ Tab from: http://www.guitartabs.cc/tabs/m/my_ruin/close_your_eyes_btab.html ]
Chorus:
G|---------------------------------------------------------------------------|
D|---------------------------------------------------------------------------|
A|---------------------------------------------------------------------------|
E|-0-0-2/3--0-0-5/6--0-0-2/3--0-0-5-3-2--------------------------------------|


Play this before "The man that I lust..." (03:43 - 04:27)
G|-----------------------------------------------------------------------------|
D|-----------------------------------------------------------------------------|
A|---------------0-2-3-2-0-----------------------------------------------------|
E|-0--0-0--0-2-3-----------2---------------------------------------------------|
then go back into main riff


| /  slide up
| \  slide down
| h  hammer-on
| p  pull-off
| ~  vibrato
| +  harmonic
| x  Mute note


Enjoy!!
=============================================================================
Comments