My Life With The Thrill Kill Kult - The Days Of Swine And Roses Chords & Tabs

 

The Days Of Swine And Roses Chords & Tabs

My Life With The Thrill Kill Kult Chords & Tabs

Version: 2 Type: Bass Tab 0 ratings
1 star 2 stars 3 stars 4 stars 5 stars
comments

The Days Of Swine And Roses Bass Tab

artist:  my life with the thrill kill kult
song:  the days of swine and roses
tuned to drop D
tabbed by cmoore (cmoore@grm.net)

intro
           p             p
G----------3-------------3-------------
D--------------------------------------
A--------------------------------------
D--1----1-----0---1---2----------------


verse
                             p
G-----------------|----------3----------
D-----------------|---------------------
A-----------------|---------------------
D--1---1---1---1--|-1---1-1----1--------
[ Tab from: http://www.guitartabs.cc/tabs/m/my_life_with_the_thrill_kill_kult/the_days_of_swine_and_roses_btab_ver_2.html ]
                             p
G-----------------|----------3----------
D-----------------|---------------------
A-----------------|---------------------
D--1---1---1---1--|-2---2-2----2--------

towards the end during the verse riff levi levi will play a 3 on the G string 
at the end of the 1st and 3rd measures


chorus

G----4----4-4-4------------------------
D--------------------------------------
A--------------------------------------
D--1-----------------------------------


those are the parts listen to it to get the timing...nothing to tricky



		cmoore@grm.net
Comments