My Dying Bride - Turn Loose The Swans Chords & Tabs

 

Turn Loose The Swans Chords & Tabs

My Dying Bride Chords & Tabs

Version: 1 Type: Tab 0 ratings
1 star 2 stars 3 stars 4 stars 5 stars
comments

Turn Loose The Swans Tab

My Dying Bride - Turn Loose the Swans

     riff one
     |-------------------|-------------------------|-------------------
     |-------------------|-------------------------|-------------------
     |-------------------|-------------------------|-------------------
     |-------------------|-------------------------|------8p7-7h8-8p7--
     |-------6p5-5h6-6p5-|-----2/3-3/5-5h6-6p5-5h6-|--6-6--------------
     |--3-3--------------|-2-2---------------------|-------------------

                      first repeat    second repeat
     -----------------------------|
                                  |
     |----------------------------|-------------------|
     |----------------------------|-------------------|
     |----------------------------|-------------------|
     |------5/7-7h8-8/10-10\8-8\7-|---5-5/7-8-7-7-8-7-|
     |--5-5-----------------------|-------------------|
     |----------------------------|-------------------|


     riff two                                   four times
     |--------|-----------------|-------|-------------------|
     |--------|-----------------|-------|-------------------|
     |o-------|-----------------|-------|------------------o|
     |o---6-6-|---6-6--5-5--8-7-|---6-6-|-5-6--4-----------o|
     |--7-4-4-|-7-4-4--3-3--6-5-|-7-4-4-|-3-4--2-5--4-7-3---|
     |--5-----|-5---------------|-5-----|--------3--2-5-1---|


     |-------------------|-------------------------|-------------------
     |-------------------|-------------------------|-------------------
     |-------------------|-------------------------|-------------------
     |-------------------|-------------------------|------8p7-7h8-8p7--
     |-------6p5-5h6-6p5-|-----2/3-3/5-5h6-6p5-5h6-|--6-6--------------
     |--3-3--------------|-2-2---------------------|-------------------

                      first repeat    second repeat
     -----------------------------|
                                  |
     |----------------------------|-------------------|
     |----------------------------|-------------------|
     |----------------------------|-------------------|
     |------5/7-7h8-8/10-10\8-8\7-|---5-5/7-8-7-7-8-7-|
     |--5-5-----------------------|-------------------|
     |----------------------------|-------------------|

                                                   six times
     |---------------|----------|-------------|--------------|
     |---------------|----------|-------------|--------------|
     |o--------------|----------|-------------|-------------o|
     |o-7------5-8-7-|-6--7-6ah-|-3-3-4-3-1-3-|-5-3-2-5-3-2-o|
     |--5--7-8-------|-4--------|-1-----------|-3------------|
     |---------------|----------|-------------|--------------|
          |--pm-----|

                                      four times
     |--------|--------|--------|--------------|------------------
     |--------|--------|--------|-trill--------|-trill------------
     |o-------|--------|--------|-45454-------o|-45454------------
     |o-------|--------|--------|-------6-5-3-o|-------6-5-3------
     |-2-2-3--|-2-2-4--|-2-2-3--|--------------|------------------
     |-0-0-1--|-0-0-2--|-0-0-1--|--------------|------------------

     thunder sound effects

                                      four times
     |--------|--------|--------|--------------|
     |--------|--------|--------|-trill--------|
     |o-------|--------|--------|-45454-------o|
     |o-------|--------|--------|-------6-5-3-o|
     |-2-2-3--|-2-2-4--|-2-2-3--|--------------|
     |-0-0-1--|-0-0-2--|-0-0-1--|--------------|

                                                       two times
     |--------------|-------------|-------------|--------------|
     |--------------|-------------|-------------|-trill--------|
     |o-------------|-------------|-------------|-45454-------o|
     |o-------------|-------------|-------------|-------6-5-3-o|
     |--2-2-3-------|-2-2-4-------|-2-2-3-------|--------------|
     |--0-0-1-------|-0-0-2-------|-0-0-1-------|--------------|
     |              |             |             |              |
     |--------------|-------------|-------------|--------------|
     |--------------|-------------|-------------|--------------|
     |o-45454-------|-45454-------|-45454-------|-45454-------o|
     |o-------6-5-3-|-------6-5-3-|-------6-5-3-|-------6-5-3-o|
     |--------------|-------------|-------------|--------------|
     |--------------|-------------|-------------|--------------|
[ Tab from: http://www.guitartabs.cc/tabs/m/my_dying_bride/turn_loose_the_swans_tab.html ]
                                     four times
     |--------|--------|--------|--------------|
     |--------|--------|--------|-trill--------|
     |o-------|--------|--------|-45454-------o|
     |o-------|--------|--------|-------6-5-3-o|
     |-2-2-3--|-2-2-4--|-2-2-3--|--------------|
     |-0-0-1--|-0-0-2--|-0-0-1--|--------------|

                                                      
     |--------------|-------------|-------------|--------------|
     |--------------|-------------|-------------|-trill--------|
     |--------------|-------------|-------------|-45454--------|
     |--------------|-------------|-------------|-------6-5-3--|
     |--2-2-3-------|-2-2-4-------|-2-2-3-------|--------------|
     |--0-0-1-------|-0-0-2-------|-0-0-1-------|--------------|
     |              |             |             |              |
     |--------------|-------------|-------------|--------------|
     |--------------|-------------|-------------|--------------|
     |--45454-------|-45454-------|-45454-------|-45454--------|
     |--------6-5-3-|-------6-5-3-|-------6-5-3-|-------6-5-3--|
     |--------------|-------------|-------------|--------------|
     |--------------|-------------|-------------|--------------|


     |--------------|-------------|-------------|--------------|
     |--------------|-------------|-------------|-trill--------|
     |--------------|-------------|-------------|-45454--------|
     |--------------|-------------|-------------|-------6-5-2--|
     |--2-2-3-------|-2-2-4-------|-2-2-3-------|--------------|
     |--0-0-1-------|-0-0-2-------|-0-0-1-------|--------------|
     |              |             |             |              |
     |--------------|-------------|-------------|--------------|
     |--------------|-------------|-------------|--------------|
     |--45454-------|-45454-------|-45454-------|-45454--------|
     |--------6-5-3-|-------6-5-3-|-------6-5-3-|-------6-5-2--|
     |--------------|-------------|-------------|--------------|
     |--------------|-------------|-------------|--------------|

                                                             seven times
     |---------------------------------|--------------------------------|
     |---------------------------------|--------------------------------|
     |o--------------------------------|-------------------------------o|
     |o-7-9--9-7-7--7-10-10--10-5-5-5--|-7-9--9-7-7--7-10-10--10-9-9-9-o|
     |---------------------------------|--------------------------------|
     |---------------------------------|--------------------------------|
     |                                 |                                |
     |---------------------------------|--------------------------------|
     |---------------------------------|--------------------------------|
     |o--------------------------------|-------------------------------o|
     |o--------------------------------|----------------------10-9-9-9-o|
     |--7-9-10-9-9--9-7--7---7--5-5-5--|-7-9-10-9-9--9-7--7-------------|
     |---------------------------------|--------------------------------|

                                                 four times
     |--------|-----------------|-------|-------------------|
     |--------|-----------------|-------|-------------------|
     |o-------|-----------------|-------|------------------o|
     |o---6-6-|---6-6--5-5--8-7-|---6-6-|-5-6--4-----------o|
     |--7-4-4-|-7-4-4--3-3--6-5-|-7-4-4-|-3-4--2-5--4-7-3---|
     |--5-----|-5---------------|-5-----|--------3--2-5-1---|


     |-------------------|-------------------------|-------------------
     |-------------------|-------------------------|-------------------
     |-------------------|-------------------------|-------------------
     |-------------------|-------------------------|------8p7-7h8-8p7--
     |-------6p5-5h6-6p5-|-----2/3-3/5-5h6-6p5-5h6-|--6-6--------------
     |--3-3--------------|-2-2---------------------|-------------------

                      first repeat    second repeat
     -----------------------------|
                                  |
     |----------------------------|-------------------|
     |----------------------------|-------------------|
     |----------------------------|-------------------|
     |------5/7-7h8-8/10-10\8-8\7-|---5-5/7-8-7-7-8-7-|
     |--5-5-----------------------|-------------------|
     |----------------------------|-------------------|


     |----------|--------|--------|--------------|----------
     |----------|--------|--------|--------------|----------
     |o---------|--------|--------|-------------o|----------
     |o-5-57875-|-4-424--|-8-10-8-|-7-67-78-10--o|----------
     |--3-------|-2------|-6------|-5------------|--5--5\---
     |----------|--------|--------|--------------|--3--3\\x\
Comments