My Dying Bride - The Forever People Chords & Tabs

 

The Forever People Chords & Tabs

My Dying Bride Chords & Tabs

Version: 1 Type: Tab 0 ratings
1 star 2 stars 3 stars 4 stars 5 stars
comments

The Forever People Tab

                  MY DYING BRIDE - THE FOREVER PEOPLE
                 From the Album "AS THE FLOWER WITHERS"
                      Version 1.0 - December 2001

Tabbed by Bobby Rafuse (metal_music69@hotmail.com)

Check Out Death8699.com, With More Transcriptions On It:
 http://www.death8699.com

.  - palm mute                  /  - slide up to
\  - slide down to              ~  - vibrato
h  - hammer on                  b  - bend
p  - pull off                   Suffixes for bend
ph - pinch harmonic             f - full bend    h - half bend
*  - see comment                r - release      t - tap bend
X  - percussion mute            ~ - vibrato bend
@  - slight palm mute           () - ghost note, sustained note
"  - tremolo pick

Tuning - 1 1/2 Steps down (C)

*NOTE* Listen to the song for the correct timing

Riff 1
|-------------------------------------------------------------------------|
|-------------------------------------------------------------------------|
|-------------------------------------------------------------------------|
|-------------------------------------------------------------------------|
|-----6666-----6666-----6666-----3333-----6666-----6666-----6666-5-6-5-4--|
|-000------000------000------000------000------000------000------3-4-3-2--|
pm... .... ... .... ... .... ... .... ... .... ... .... ... .... . . . .


Riff 2
|-----------------------------------------------|
|------ah----------ah----------ah---------------|
|-------6~----------6~----------6~--------------|
|-------------------------------------2------5--|
|-2--2--------2--2--------2--2--------0------3--|
|-0--0--------0--0--------0--0--------0------3--|
pm.  .        .  .        .  .

[ Tab from: http://www.guitartabs.cc/tabs/m/my_dying_bride/the_forever_people_tab.html ]
Riff 3
|------------------------------------|
|------------------------------------|
|------------------------------------|
|-3--------4--------2----------------|
|-1--------2--------2--------1---2~--|
|-1--------2--------0----------------|


Riff 4
|----------------------------------------------|
|----------------------------------------------|
|----------------------------------------------|
|----------------------------------------------|
|-4-3-6-3-------3-----------6-----------3------|
|-2-1-4-1-0-0-0---2-0-0-0-0---5-0-0-0-0---2-0--|
pm        . . . . . . . . . . . . . . . . . .


Fill
|----------|
|----------|
|----------|
|----------|
|-4-3-6-3--|
|-2-1-4-1--|
pm. . . .


Riff 5a
|-----------------------------------------------------------------------|
|-----------------------------------------------------------------------|
|-----------------------------------------------------------------------|
|-----------------------------------------------------------------------|
|-4-3-6-3--6"--------4-3-6-3--5"--------4-3-6-3--4"--------4-3-6-3--3"--|
|-2-1-4-1------------2-1-4-1------------2-1-4-1------------2-1-4-1------|
pm. . . .            . . . .            . . . .            . . . .


Riff 5b
|-------------------------------------------------------------------|
|-------------------------------------------------------------------|
|-------------------------------------------------------------------|
|----------8-----------------7-----------------6-----------------5--|
|-4-3-6-3--6--------4-3-6-3--5--------4-3-6-3--4--------4-3-6-3--3--|
|-2-1-4-1--6--------2-1-4-1--5--------2-1-4-1--4--------2-1-4-1--3--|
pm. . . .           . . . .           . . . .           . . . .

end song with Fill


Check Out Death8699.com, With More Transcriptions On It:
http://www.death8699.com
Comments