My Dying Bride - Le Figlie Della Tempesta Chords & Tabs

 

Le Figlie Della Tempesta Chords & Tabs

My Dying Bride Chords & Tabs

Version: 1 Type: Bass Tab 0 ratings
1 star 2 stars 3 stars 4 stars 5 stars
comments

Le Figlie Della Tempesta Bass Tab

   
Normal tuning G D A E B

Riff A (1:11)

-------------4-4-4-------------------4-4-4-------------------4-4-4-------|
-2-2-2-5-5-5-------5-5-5-4-4-4-5-5-5-------5-5-5-3-3-3-5-5-5-------5-5-5-|
-------------------------------------------------------------------------|
-------------------------------------------------------------------------|
-------------------------------------------------------------------------|

-------------4-4-4-------|
-2-2-2-5-5-5-------5-5-5-|
-------------------------|
-------------------------|
-------------------------|

Riff B (1:23)

-------------4-4-4-------------------4-4-4-------------------4-4-4-----------|
-2-2-2-5-5-5-------5-5-5-4-4-4-5-5-5-------5-5-5-3-3-3-5-5-5-------5-5-5-5---|
-----------------------------------------------------------------------------|
-----------------------------------------------------------------------------|
-----------------------------------------------------------------------------|

Riff C (3:13)

-------------------------------------------------------------------------|
-------------------------------------------------------------------------|
-------------2-2-2-------------------2-2-2-------------------2-2-2-------|
-------0-0-0-------0-0-0-------0-0-0-------0-0-0-------0-0-0-------0-0-0-|
-2-2-2-------------------4-4-4-------------------3-3-3-------------------|
[ Tab from: http://www.guitartabs.cc/tabs/m/my_dying_bride/le_figlie_della_tempesta_btab.html ]
-------------------------|
-------------------------|
-------------2-2-2-------|
-------0-0-0-------0-0-0-|
-2-2-2-------------------|


Riff D (5:39)

-------------4-4-4-------------------4-4-4-------------------4-4-4-------|
-2-2-2-5-5-5-------5-5-5-4-4-4-5-5-5-------5-5-5-3-3-3-5-5-5-------5-5-5-|
-------------------------------------------------------------------------|
-------------------------------------------------------------------------|
-------------------------------------------------------------------------|

-------------11-12-11-9-11-9-|
-2-2-2-5-5-5-----------------|
-----------------------------|
-----------------------------|
-----------------------------|

Riff E (5:41)

-8-8-8-8-8-8-8-8-8-8-9-11-12-12-12-12-12-12-11-12-11-9-11-9-|
------------------------------------------------------------|
------------------------------------------------------------|
------------------------------------------------------------|
------------------------------------------------------------|

Riff F (6:11)

-8-8-8-8-8-8-8-8-8-8-9----------------------------|
-----------------------10-9-9-9-9-9-9-5-7-5-4-5-4-|
--------------------------------------------------|
--------------------------------------------------|
--------------------------------------------------|


Riff A 1 time
Riff B 1 time
Riff C 2 times
Riff A 17 times
Riff D 1 time
Riff E 5 times
Riff F 1 time
Riff A 8 times
Riff C 2 times
Riff A 10 times
Comments