My Dying Bride - I Am The Bloody Earth Chords & Tabs

 

I Am The Bloody Earth Chords & Tabs

My Dying Bride Chords & Tabs

Version: 2 Type: Bass Tab 0 ratings
1 star 2 stars 3 stars 4 stars 5 stars
comments

I Am The Bloody Earth Bass Tab

I was amazed, the first version of this isn't complete or the slighest bit correct. ;)

tune down

E ||-------------------|------------------|------------------|
B ||-------------------|------------------|------------------|
F#||-------------------|------------------|------------------|
C#||--0----------------|------------------|------------------|


                                                                             
------------------|-------------------|------------------|------------------|
------------------|-------------------|------------------|------------------|
------------------|-------------------|------------------|------------------|
------------------|--0----------------|------------------|------------------|


                                                                             
------------------|-------------------|------------------|------------------|
------------------|-------------------|------------------|------------------|
------------------|-------------------|------------------|------------------|
------------------|--0----------------|------------------|------------------|


                                                                             
------------------|-------------------|------------------|------------------|
------------------|-------------------|------------------|------------------|
------------------|-------------------|------------------|------------------|
------------------|--0----------------|------------------|------------------|


                                                                             
------------------|-------------------|------------------|------------------|
------------------|-------------------|------------------|------------------|
------------------|-------------------|------------------|------------------|
------------------|--0----------------|------------------|------------------|


                                                                             
------------------|-------------------|------------------|------------------|
------------------|-------------------|------------------|------------------|
------------------|-------------------|------------------|------------------|
------------------|--0----------------|------------------|------------------|


                                                                             
------------------|-------------------|------------------|------------------|
------------------|-------------------|------------------|------------------|
------------------|-------------------|------------------|------------------|
------------------|--0----------------|------------------|------------------|


                                                                             
------------------|-------------------|------------------|------------------|
------------------|-------------------|------------------|------------------|
------------------|-------------------|------------------|------------------|
------------------|--0----------------|------------------|------------------|


                                                                 
------------------|----------------------|----------------------|
------------------|--0----3--------------|----------------------|
------------------|------------1------0--|--0-------------------|
------------------|----------------------|---------1--1------3--|


                                                                      
----------------------|-----------------------|----------------------|
---------0--0------0--|--0-----0--1--0--------|--0----3--------------|
----------------------|-----3-----------------|------------1------0--|
--3-------------------|-----------------------|----------------------|


                                                                     
----------------------|----------------------|--0-------------------|
----------------------|---------0--0------0--|-----3----1--0--------|
--0-------------------|----------------------|----------------------|
---------1--1------3--|--3-------------------|----------------------|


                                                                     
----------------------|----------------------|----------------------|
--0----3--------------|----------------------|---------0--0------0--|
------------1------0--|--0-------------------|----------------------|
----------------------|---------1--1------3--|--3-------------------|


                                                                      
-----------------------|----------------------|----------------------|
--0-----0--1--0--------|--0----3--------------|----------------------|
-----3-----------------|------------1------0--|--0-------------------|
-----------------------|----------------------|---------1--1------3--|


                                                                     
----------------------|--0-------------------|----------------------|
---------0--0------0--|-----3----1--0--------|--0----3--------------|
----------------------|----------------------|------------1------0--|
--3-------------------|----------------------|----------------------|


                                                                      
----------------------|----------------------|-----------------------|
----------------------|---------0--0------0--|--0-----0--1--0--------|
--0-------------------|----------------------|-----3-----------------|
---------1--1------3--|--3-------------------|-----------------------|


                                                                     
----------------------|----------------------|----------------------|
--0----3--------------|----------------------|---------0--0------0--|
------------1------0--|--0-------------------|----------------------|
----------------------|---------1--1------3--|--3-------------------|


                                                                     
--0-------------------|----------------------|----------------------|
-----3----1--0--------|--0----3--------------|----------------------|
----------------------|------------1------0--|--0-------------------|
----------------------|----------------------|---------1--1------3--|


                                                                      
----------------------|-----------------------|----------------------|
---------0--0------0--|--0-----0--1--0--------|--0----3--------------|
----------------------|-----3-----------------|------------1------0--|
--3-------------------|-----------------------|----------------------|


                                                                     
----------------------|----------------------|--0-------------------|
----------------------|---------0--0------0--|-----3----1--0--------|
--0-------------------|----------------------|----------------------|
---------1--1------3--|--3-------------------|----------------------|


                                                                 
--------------------|----------------------|--------------------|
--------------------|----------------------|--------------------|
--5-----------------|--6----6--4--4--------|--3-----------------|
-----------4--------|----------------------|-----------2--------|


                                                                   
----------------------|--------------------|----------------------|
----------------------|--------------------|----------------------|
--4----4--2--2--------|--5-----------------|--6----6--4--4--------|
----------------------|-----------4--------|----------------------|


                                                                 
--------------------|----------------------|--------------------|
--------------------|----------------------|--------------------|
--3-----------------|--4----4--2--2--------|--5-----------------|
-----------2--------|----------------------|-----------4--------|


                                                                   
----------------------|--------------------|----------------------|
----------------------|--------------------|----------------------|
--6----6--4--4--------|--3-----------------|--4----4--2--2--------|
----------------------|-----------2--------|----------------------|


                                                                 
--------------------|----------------------|--------------------|
--------------------|----------------------|--------------------|
--5-----------------|--6----6--4--4--------|--3-----------------|
-----------4--------|----------------------|-----------2--------|

[ Tab from: http://www.guitartabs.cc/tabs/m/my_dying_bride/i_am_the_bloody_earth_btab_ver_2.html ]
                                                                         
----------------------|-----------------------|-------------------------|
----------------------|-----------------------|--------5--------7-------|
--4----4--2--2--------|-----------------------|-----5--------7-----8----|
----------------------|--0--0--0--0--0--------|--3--------5-------------|


                                                                          
-----------------------|-------------------------|-----------------------|
-----------------------|--------5--------7-------|-----------------------|
-----------------------|-----5--------7-----8----|-----------------------|
--0--0--0--0--0--------|--3--------5-------------|--0--0--0--0--0--------|


                                                                            
-------------------------|-----------------------|-------------------------|
--------5--------7-------|-----------------------|--------5--------7-------|
-----5--------7-----8----|-----------------------|-----5--------7-----8----|
--3--------5-------------|--0--0--0--0--0--------|--3--------5-------------|


                                                                          
-----------------------|-------------------------|-----------------------|
-----------------------|--------5--------7-------|-----------------------|
-----------------------|-----5--------7-----8----|-----------------------|
--0--0--0--0--0--------|--3--------5-------------|--0--0--0--0--0--------|


                                                                            
-------------------------|-----------------------|-------------------------|
--------5--------7-------|-----------------------|--------5--------7-------|
-----5--------7-----8----|-----------------------|-----5--------7-----8----|
--3--------5-------------|--0--0--0--0--0--------|--3--------5-------------|


                                                                          
-----------------------|-------------------------|-----------------------|
-----------------------|--------5--------7-------|-----------------------|
-----------------------|-----5--------7-----8----|-----------------------|
--0--0--0--0--0--------|--3--------5-------------|--0--0--0--0--0--------|


                                                                            
-------------------------|-----------------------|-------------------------|
--------5--------7-------|-----------------------|--------5--------7-------|
-----5--------7-----8----|-----------------------|-----5--------7-----8----|
--3--------5-------------|--0--0--0--0--0--------|--3--------5-------------|


                                                                          
-----------------------|-------------------------|-----------------------|
-----------------------|--------5--------7-------|-----------------------|
-----------------------|-----5--------7-----8----|-----------------------|
--0--0--0--0--0--------|--3--------5-------------|--0--0--0--0--0--------|


                                                                            
-------------------------|-----------------------|-------------------------|
--------5--------7-------|-----------------------|--------5--------7-------|
-----5--------7-----8----|-----------------------|-----5--------7-----8----|
--3--------5-------------|--0--0--0--0--0--------|--3--------5-------------|


                                                                          
-----------------------|-------------------------|-----------------------|
-----------------------|--------5--------7-------|-----------------------|
-----------------------|-----5--------7-----8----|-----------------------|
--0--0--0--0--0--------|--3--------5-------------|--0--0--0--0--0--------|


                                                                            
-------------------------------------|-------------------------------------|
----------------5--4-----5--4-----3--|----------------5--4-----5--4-----3--|
--7----5--------------5--------5-----|--7----5--------------5--------5-----|
----------6--5-----------------------|----------6--5-----------------------|


                                                                            
-------------------------------------|-------------------------------------|
----------------5--4-----5--4-----3--|----------------5--4-----5--4-----3--|
--7----5--------------5--------5-----|--7----5--------------5--------5-----|
----------6--5-----------------------|----------6--5-----------------------|


                                                                            
-------------------------------------|-------------------------------------|
----------------5--4-----5--4-----3--|----------------5--4-----5--4-----3--|
--7----5--------------5--------5-----|--7----5--------------5--------5-----|
----------6--5-----------------------|----------6--5-----------------------|


                                                                            
-------------------------------------|-------------------------------------|
----------------5--4-----5--4-----3--|----------------5--4-----5--4-----3--|
--7----5--------------5--------5-----|--7----5--------------5--------5-----|
----------6--5-----------------------|----------6--5-----------------------|


                                                                                
--------------------------------|----------------------|-----------------------|
--------------------------------|---------0--0------0--|--0-----0--1--0--------|
--1------0--0-------------------|----------------------|-----3-----------------|
-------------------1--1------3--|--3-------------------|-----------------------|


                                                                     
----------------------|----------------------|----------------------|
--0----3--------------|----------------------|---------0--0------0--|
------------1------0--|--0-------------------|----------------------|
----------------------|---------1--1------3--|--3-------------------|


                                                                     
--0-------------------|----------------------|----------------------|
-----3----1--0--------|--0----3--------------|----------------------|
----------------------|------------1------0--|--0-------------------|
----------------------|----------------------|---------1--1------3--|


                                                                      
----------------------|-----------------------|----------------------|
---------0--0------0--|--0-----0--1--0--------|--0----3--------------|
----------------------|-----3-----------------|------------1------0--|
--3-------------------|-----------------------|----------------------|


                                                                     
----------------------|----------------------|--0-------------------|
----------------------|---------0--0------0--|-----3----1--0--------|
--0-------------------|----------------------|----------------------|
---------1--1------3--|--3-------------------|----------------------|


                                                                     
----------------------|----------------------|----------------------|
--0----3--------------|----------------------|---------0--0------0--|
------------1------0--|--0-------------------|----------------------|
----------------------|---------1--1------3--|--3-------------------|


                                                                      
-----------------------|----------------------|----------------------|
--0-----0--1--0--------|--0----3--------------|----------------------|
-----3-----------------|------------1------0--|--0-------------------|
-----------------------|----------------------|---------1--1------3--|


                                                                     
----------------------|--0-------------------|----------------------|
---------0--0------0--|-----3----1--0--------|--0----3--------------|
----------------------|----------------------|------------1------0--|
--3-------------------|----------------------|----------------------|


                                                                      
----------------------|----------------------|-----------------------|
----------------------|---------0--0------0--|--0-----0--1--0--------|
--0-------------------|----------------------|-----3-----------------|
---------1--1------3--|--3-------------------|-----------------------|


                                                                     
----------------------|----------------------|----------------------|
--0----3--------------|----------------------|---------0--0------0--|
------------1------0--|--0-------------------|----------------------|
----------------------|---------1--1------3--|--3-------------------|


                        
--0-------------------||
-----3----1--0--------||
----------------------||
----------------------||
Comments