My Dying Bride - Cry Of Mankind Chords & Tabs

 

Cry Of Mankind Chords & Tabs

My Dying Bride Chords & Tabs

Version: 1 Type: Tab 0 ratings
1 star 2 stars 3 stars 4 stars 5 stars
comments

Cry Of Mankind Tab

My Dying Bride - Cry of Mankind


     Intro (keyboard thing, but it could be played with guitar...)


     |--5-----------------|
     |--------6--5--------|
     |-----7-----------5--|
     |--------------7-----|
     |--------------------|
     |--------------------|
                     
     riff1
     (lots of distortion)
     letring................................................................
     |----------------------------------------------------------------------|
     |----------------------------------------------------------------------|
     |----------------------------------------------------------------------|
     |--7-------------------------------------------------------------------|
     |--5-------------------------------------------------------------------|
     |--5-------------------------------------------------------------------|



     riff2
     letring...........................................................
     |-----------------------------------------------------------------|
     |-----------------------------------------------------------------|
     |-----------------------------------------------------------------|
     |--7--------------------------------------------------------------|
     |--5--------------)------------8-----------7----------------------|
     |--5-------------5-------10----6-----------5----------------------|


     fill1
     letring........................................................
     |--------------------------------------------------------------|
     |--------------------------------------------------------------|
     |------------------h--p----------------------------------------|
     |-------7-----8---8/10\8--7-----------7------8---7-------------|
     |--/5------8---------------------/5------8-----------7---/8----|
     |--------------------------------------------------------------|


     riff3
     letring.........................................................
     |--------------------------------------------------------------|
     |--------------------------------------------------------------|
     |--------------------------------------------------------------|
     |--7---------7-----------------7---------7-------10------------|
     |--5------5----------8---------5------5-------8----------------|
     |--5--------------6------------5-------------------------------|
[ Tab from: http://www.guitartabs.cc/tabs/m/my_dying_bride/cry_of_mankind_tab.html ]
     riff3b
     letring............................................................
     |------------------------------------------------------------------|
     |------------------------------------------------------------------|
     |------------------------------------------------------------------|
     |--7---------7-------------------7---------------------------------|
     |--5------5----------8-----------5------7------5-------------------|
     |--5--------------6--------------5---------------------------------|

     riff4a
     letring...................................................
     |---------------------------------------------------------|
     |---------------------------------------------------------|
     |---------------------------------------------------------|
     |--7------------------------------------------------------|
     |--5----------)----------8-------8-------7------------5---|
     |--5---------5-----10----6--------------------------------|

     riff4b
     letring.........................................................
     |---------------------------------------------------------------|
     |---------------------------------------------------------------|
     |---------------------------------------------------------------|
     |--7------------------------------------------------------------|
     |--5----------)----------8-------8--------10----------12---12---|
     |--5---------5-----10----6--------------------------------------|

     "Solo"
     letring...............................................
     |-----------------------------------------------------|
     |-----------------------------------------------------|
     |-----------------------------------------------------|
     |-------7----------------------8----------------------|
     |--5---------8----7----5--5---------8----/10--8--7--8-|
     |-----------------------------------------------------|


     letring..............................................
     |----------------------------------------------------|
     |----------------------------------------------------|
     |----------------------------------------------------|
     |-------7------------------8----10-------------------|
     |--5---------8----5--5-------------------------------|
     |----------------------------------------------------|


     letring....................................................
     |----------------------------------------------------------|
     |----------------------------------------------------------|
     |----------------------------------------------------------|
     |----------------------------------------------------------|
     |--5-------5--7--8--7--8--8-----10--8--7--8--10--8--7--8---|
     |----------------------------------------------------------|

     letring....................................................
     |----------------------------------------------------------|
     |----------------------------------------------------------|
     |----------------------------------------------------------|
     |----------------------------------------------------------|
     |--5-------5--7--8--7--5--5-----7--5--3--5--7--3--5--------|
     |----------------------------------------------------------|

     Figure the structure yerself...
Comments