My Dying Bride - Cry Of Mankind Chords & Tabs

 

Cry Of Mankind Chords & Tabs

My Dying Bride Chords & Tabs

Version: 1 Type: Bass Tab 0 ratings
1 star 2 stars 3 stars 4 stars 5 stars
comments

Cry Of Mankind Bass Tab

   
tune down accordingly

E |------------|
B |------------|
G#|-->---------|
C#|--0^×(0)---0-|
             .

E |--------------|
B |o---------79-o|
G#|o-7-77-77----o|
C#|--------------|


E |------------|
B |o----------o|
G#|o----------o|
C#|--0-000000--|


E |----------------------------------------------------|
B |o--------------------------------------------------o|
G#|o-------------------2-22-23-33-33-33-32-22-22-22-2-o|
C#|--0-00-00-00-00-00-0--------------------------------|


E |---------------------------------------|
B |o-------------------------------------o|
G#|o-------3-33-32-(2)-------3-33-3------o|
C#|--0-00-0------------0-00-0------2-(2)--|


E |------------------------------------------------|
B |------------------------------------------------|
G#|-------0h2-2/3-3-33-33-3------0h2-2/5-5-55-55-5-|
C#|-0-00-0-----------------0-00-0------------------|


E |-------------------------------------------------|
B |-------------------------------------------------|
G#|-------0h2-2/3-3-33-33-32-22-22-22-20-00-00-00-0-|
C#|-0-00-0------------------------------------------|


E |------------------------------------------------|
B |------------------------------------------------|
G#|-------0h2-2/3-3-33-33-3------0h2-2/5-5-55-55-5-|
C#|-0-00-0-----------------0-00-0------------------|


E |-------------------------------------------------|
B |------------------------7-77-77-77-77-77-77-77-7-|
G#|-------0h2-2/3-3-33-33-3-------------------------|
C#|-0-00-0------------------------------------------|


E |--------------------------------------------------|
B |--------------------------------------------------|
G#|-------------------2-22-23-33-33-33-32-22-22-22-2-|
C#|-0-00-00-00-00-00-0-------------------------------|


E |--------------------------------------------------|
B |--------------------------------------------------|
G#|-------------------2-22-23-33-33-33-35-55-5-7-5-7-|
C#|-0-00-00-00-00-00-0-------------------------------|


E |--------------------------------------------------|
B |--------------------------------------------------|
G#|-7-77-77-77-77-77-72-22-23-33-33-33-32-22-22-22-2-|
C#|--------------------------------------------------|


E |--------------------------------------------------|
B |--------------------------------------------------|
G#|-------------------2-22-23-33-33-33-35-55-5-7-5-7-|
C#|-0-00-00-00-00-00-0-------------------------------|

			    x2
E |---------------------------------------------------|
B |o-------------------------5-55-55-55-57-77-77-7-7-o|
G#|o-7-77-77-77-77-77-77-77-7------------------------o|
C#|---------------------------------------------------|


E |-------------------------------------------------|
B |-------------------------------------------------|
G#|-7-77-77-77-77-77-77-77-73-33-33-33-32-22-22-2-2-|
C#|-------------------------------------------------|

[ Tab from: http://www.guitartabs.cc/tabs/m/my_dying_bride/cry_of_mankind_btab.html ]
E |-------------------------------------------------|
B |-------------------------------------------------|
G#|-------------------------3-33-33-33-32-22-22-2-2-|
C#|-0-00-00-00-00-00-00-00-0------------------------|


E |---------------------------------------|
B |o-------------------------------------o|
G#|o-------3-33-32-(2)-------3-33-3------o|
C#|--0-00-0------------0-00-0------2-(2)--|


E |------------------------------------------------|
B |------------------------------------------------|
G#|-------0h2-2/3-3-33-33-3------0h2-2/5-5-55-55-5-|
C#|-0-00-0-----------------0-00-0------------------|


E |-------------------------------------------------|
B |-------------------------------------------------|
G#|-------0h2-2/3-3-33-33-32-22-22-22-20-00-00-00-0-|
C#|-0-00-0------------------------------------------|


E |------------------------------------------------|
B |------------------------------------------------|
G#|-------0h2-2/3-3-33-33-3------0h2-2/5-5-55-55-5-|
C#|-0-00-0-----------------0-00-0------------------|


E |-------------------------------------------------|
B |------------------------7-77-77-77-77-77-77-77-7-|
G#|-------0h2-2/3-3-33-33-3-------------------------|
C#|-0-00-0------------------------------------------|

			    x3
E |----------------------------------------------------|
B |o--------------------------------------------------o|
G#|o-------------------2-22-23-33-33-33-32-22-22-22-2-o|
C#|--0-00-00-00-00-00-0--------------------------------|


E |--------------------------------------------------|
B |--------------------------------------------------|
G#|-------------------2-22-23-33-33-33-35-55-5-7-5-7-|
C#|-0-00-00-00-00-00-0-------------------------------|

E |--------------------------------------------------|
B |--------------------------------------------------|
G#|-7-77-77-77-77-77-72-22-23-33-33-33-32-22-22-22-2-|
C#|--------------------------------------------------|


E |--------------------------------------------------|
B |--------------------------------------------------|
G#|-------------------2-22-23-33-33-33-35-55-5-7-5-7-|
C#|-0-00-00-00-00-00-0-------------------------------|


E |------------------------------------------------|
B |------------------------------------------------|
G#|-------0h2-2/3-3-33-33-3------0h2-2/5-5-55-55-5-|
C#|-0-00-0-----------------0-00-0------------------|


E |-------------------------------------------------|
B |-------------------------------------------------|
G#|-------0h2-2/3-3-33-33-32-22-22-22-20-00-00-00-0-|
C#|-0-00-0------------------------------------------|


E |------------------------------------------------|
B |------------------------------------------------|
G#|-------0h2-2/3-3-33-33-3------0h2-2/5-5-55-55-5-|
C#|-0-00-0-----------------0-00-0------------------|


E |-------------------------------------------|
B |------------------------7-77-77-77-77-77-7-|
G#|-------0h2-2/3-3-33-33-3-------------------|
C#|-0-00-0------------------------------------|


E |----------79--|
B |o-7-77-77----o|
G#|o------------o|
C#|--------------|
Comments