My Dying Bride - Black Voyage Chords & Tabs

 

Black Voyage Chords & Tabs

My Dying Bride Chords & Tabs

Version: 1 Type: Bass Tab 0 ratings
1 star 2 stars 3 stars 4 stars 5 stars
comments

Black Voyage Bass Tab

tune down accordingly

E |---------------------------------|
B |o-------------------------------o|
G#|o-------5-(5)-3-(3)-2-(2)->->->-o|
C#|--0-(0)-------------------3-3-3--|


E |----------------|-------------------------------|-------|
B |---22-----------|o----------------22-----------o|-------|
G#|-23--32-----222-|o-----7----7---23--32-----222-o|-------|
C#|--------111-----|--0--0-00-0-00--------111------|-0^×(0)-|


E |---------|-------------------------------------|
B |---------|o-----------------------------------o|
G#|-------5-|o---7-2-3--------7-2-5----------5-o|
C#|-7-8-3---|--0--------3--330---------5-7-8-3----|
[ Tab from: http://www.guitartabs.cc/tabs/m/my_dying_bride/black_voyage_btab.html ]
E |----------------|-------------------------------|-------|
B |---22-----------|o----------------22-----------o|-------|
G#|-23--32-----222-|o-----7----7---23--32-----222-o|-------|
C#|--------111-----|--0--0-00-0-00--------111------|-0^×(0)-|


E |------------------------------------|--------------------|
B |o----------------------------------o|--------------------|
G#|o----------------------------------o|--------------------|
C#|--3333-6-5-3-1-3-3333-6-5-6-8-6-5h6-|-3333-6-5-(5)-8-(8)-|

E |---------|-------------------------------------|
B |---------|o-----------------------------------o|
G#|-------5-|o---7-2-3--------7-2-5----------5-o|
C#|-7-8-3---|--0--------3--330---------5-7-8-3----|

     
E |---------|-------------------------------------|-----------|
B |---------|o-----------------------------------o|-----------|
G#|-------5-|o---7-2-3--------7-2-5----------5-o|-----------|
C#|-7-8-3---|--0--------3--330---------5-7-8-3----|-0-----(0)-|
Comments