My Dying Bride - All Swept Away Chords & Tabs

 

All Swept Away Chords & Tabs

My Dying Bride Chords & Tabs

Version: 1 Type: Bass Tab 0 ratings
1 star 2 stars 3 stars 4 stars 5 stars
comments

All Swept Away Bass Tab

tune down

E ||--------------------------|--------------------------|
B ||--------------------------|--------------------------|
F#||--------------------------|--------------------------|
C#||--0--0--0--0--3--3--3--2--|--2--2--2--6--5--5--5--5--|


                                                      
--------------------------|--------------------------|
--------------------------|--------------------------|
--------------------------|--------------------------|
--0--0--0--0--3--3--3--2--|--2--2--2--6--5--5--5--5--|


                                                      
--------------------------|--------------------------|
--------------------------|--------------------------|
--------------------------|--------------------------|
--0--0--0--0--3--3--3--2--|--2--2--2--6--5--5--5--5--|


                                                      
--------------------------|--------------------------|
--------------------------|--------------------------|
--------------------------|--------------------------|
--0--0--0--0--3--3--3--2--|--2--2--2--6--5--5--5--5--|


                                                      
--------------------------|--------------------------|
--------------------------|--------------------------|
--------------------------|--------------------------|
--0--0--0--0--3--3--3--2--|--2--2--2--6--5--5--5--5--|

[ Tab from: http://www.guitartabs.cc/tabs/m/my_dying_bride/all_swept_away_btab.html ]
                                                      
--------------------------|--------------------------|
--------------------------|--------------------------|
--------------------------|--------------------------|
--0--0--0--0--3--3--3--2--|--2--2--2--6--5--5--5--5--|


                                                      
--------------------------|--------------------------|
--------------------------|--------------------------|
--------------------------|--------------------------|
--0--0--0--0--3--3--3--2--|--2--2--2--6--5--5--5--5--|


                                                      
--------------------------|--------------------------|
--------------------------|--------------------------|
--------------------------|--------------------------|
--0--0--0--0--3--3--3--2--|--2--2--2--6--5--5--5--5--|


                                                                
|-------------------------------|------------------------------|
|*------------------------------|------------------------------|
|*------------------------------|------------------------------|
|---0-0-0--0-0-0--0-0-0--0-0-0--|--0-0-0--0-0-0--0-0-0--0-0-0--|


                        2x                               
------------------------||------------------------------|
-----------------------*||------------------------------|
--------------3--2-----*||------------------------------|
--4------3----------1---||--0-0-0--0-0-0--0-0-0--0-0-0--|


                                                                            
------------------------------|-----------------------|-------------------||
------------------------------|-----------------------|-------------------||
------------------------------|--------------8--7--5--|--7----------------||
--0-0-0--0-0-0--0-0-0--0-0-0--|--4------3-------------|-------------------||
Comments