My Dying Bride - A Kiss To Remember Chords & Tabs

 

A Kiss To Remember Chords & Tabs

My Dying Bride Chords & Tabs

Version: 1 Type: Tab 0 ratings
1 star 2 stars 3 stars 4 stars 5 stars
comments

A Kiss To Remember Tab

   
Band: mY dyIng BridE
Song: a kIss tO RemeMBeR
Album: LikE gODs OF thE SUN
Tabbed by: Andrew Higgins (morbidfate@aol.com)

tuning: C#
A.H.- artifiial Harmonic
/- slide
h- hammer on
p- pull off

0:00-0:16
bass intro

0:16-0:44
Riff #1 (4 times)
1| ----------------------------------- |
2| ----------------------------------- |
3|.---------------------7-1010--------.|
4|.-2222-2-22-2-22-7777-7/1010---(A.H).| Gt. 1
5| -2222-2-22-2-22-5555-5/8 8-8-10-8-- |
6| -0000-0-00-0-00-------------------- |
                                                                 
1| -------------------------------------------------------------- |
2| -------------------------------------------------------------- |
3|.-9-9h10p9-9-10p9-10-9h10h12-10-9-9h10p9\7-7\5-7-10-10-10-12-10.|
4|.--------------------------------------------------------------.| Gt. 2
5| -------------------------------------------------------------- |(neck pickup)
6| -------------------------------------------------------------- |

0:44-1:14
Riff #2 (4 times)
1| ------------------- |
2| ------------------- |
3|.-9---------------4-.|
4|.-9----10----5----4-.| Gt. 1
5| -7----10----5----2- |
6| ------8 ----3------ |
[ Tab from: http://www.guitartabs.cc/tabs/m/my_dying_bride/a_kiss_to_remember_tab.html ]
1| ------------------------------- |
2| ------------------------------- |
3|.-9\7-9-----------------11-12---.|
4|.-------9-10----9-10-12-------9-.| Gt.2 
5| ------------10----------------- |
6| ------------------------------- |

1:14-1:42
Repeat Riff #1 (4 times)

1:42-1:53
Fill #1
1| ---- |
2| ---- |
3| ---- |
4| -2-- | Both Gts.
5| -2-- |
6| -0-- |

1:52-4:29
Riff #3 (7 times, first three with only one guitar)
1| ------------------------ |
2| ------------------------ |
3|.----5----4----3---------.|
4|.-2--5--5-4--5-3--3--5-2-.| Both Gts.
5| -2--3--5-2--5-1--3--5-2- |
6| -0-----3----3----1--3-0- |

4:29-5:16
Riff #4 (5 times, Gt.1 starts it off alone then 4 times together)
1| ---------------------------- |
2| ---------------------------- |
3|.----------------------------.|
4|.----------------------------.| Gt. 1
5| -7/10-9\2-3-5/10-12-12-10-9- |
6| ---------------------------- |

1| ----------------- |
2| ----------------- |
3|.-9\7-9-4-7-5-4-4-.|
4|.-----------------.| Gt.2 (neck pickup)
5| ----------------- | this is alittle strange but i am sure it is correct
6| ----------------- |

5:16-5:20
Fill #2
1| --------- |
2| --------- |
3|.-9-7-9-4-.|
4|.--------- |
5| --------- |
6| --------- |

5:21-5:39
Piano Interlude

5:39-6:09
Riff #1 (4 times)

6:09-6:40
Riff #2 (4 times)

6:40-7:10
Riff #3 (2 times)

7:10-end
Fill #3 (one guitar)
1| --------------------- |
2| --------------------- |
3| --------------------- |
4| --------------------- |
5| -7-10-9-2-3-5-10-9-7- |
6| --------------------- |
Comments