My Chemical Romance - Vampires Will Never Hurt You Chords & Tabs

 

Vampires Will Never Hurt You Chords & Tabs

My Chemical Romance Chords & Tabs

Version: 3 Type: Tab 0 ratings
1 star 2 stars 3 stars 4 stars 5 stars
comments

Vampires Will Never Hurt You Tab

   
- My Chemical Romance : Vampires Will Never Hurt You
- Configured for two guitars

*** No strum pattern shown - listen to the track to get it right ***

------ PART 1 ------
GUITAR ONE
Main riff - very light distortion

e||--------------------------|---------------------------|
B||--------------------------|-----------8---------------|
G||-9--9-11-9----------------|-9-11-9-11-9---------------|
D||----0-0--0--9-10/13-10-9--|-------------9-10/13-10-9--|
A||-7------------------------|-7-7--7-7--7---------------|
E||------------8-8-/11-11-11-|-------------8-8-/11-11-11-|


------ PART 2 ------
GUITAR ONE & TWO
Pick Slide then Main riff (with heavier distortion)
Second guitar under Main riff - distortion:

e||-----------------------|-----------------|
B||-----------------------|-----------------|
G||-9--7--5--8--xx-5-xx-4-|-9--7--5--8--5/4-|
D||-9--7--5--8--xx-5-xx-4-|-9--7--5--8--5/4-|
A||-7--5--3--6--xx-3-xx-2-|-7--5--3--6--3/2-|
E||-----------------------|-----------------|

Then the chord played aftwerwards (first time round only) - distortion

e||---|
B||---|
G||-9-|
D||-9-|
A||-7-|
E||---|


------ PART 3 ------
GUITAR ONE
Palm mute the 0's - distortion
slightly bend each note for a better sound (apart from the 0's, of course)
[ Tab from: http://www.guitartabs.cc/tabs/m/my_chemical_romance/vampires_will_never_hurt_you_tab_ver_3.html ]
e||-------------------------------------------------|--------|
B||-------------------------------------------------|--------|
G||-------------------------------------------------|-4--5/8-|
D||-----2-----2-----3-----2-------------------------|-4--5/8-|
A||-----------------------------2-----2-----3-2-3-0-|-2--3/6-|
E||-0-0---0-0---0-0---0-0---0-0---0-0---0-0---------|--------|
    . .   . .   . .   . .   . .   . .   . .  

------ PART 4 ------
GUITAR TWO
Same as PART 2, but instead the second guitar plays this - distortion

e||------------------------------|
B||------------------------------|
G||-9-11-12-14/17/16-14-12-14/17-|
D||------------------------------|
A||-7-9--10-12/15/14-12-10-12/15-|
E||------------------------------|

------ PART 5 ------
GUITAR ONE & TWO
First time round the first chord is played three times before the others
The second bit is played during the last chord by guitar 2 - both distortion

e||----|-------------|-----------------|
B||----|-------------|-----------------|
G||-44-|-44-22-------|-------------4-3-|
D||-44-|-44-22-55-22-|-5p4h5-5p4h5-----|
A||-22-|-22-00-55-22-|-----------------|
E||----|-------33-00-|-----------------|
     .    .  .  .  .

------ PART 6 ------
GUITAR ONE - distortion

e||------------------------|
B||------------------------|
G||-4-6-7-9/12-11/12-14-16-|
D||-4-6-7-9/12-11/12-14-16-|
A||-2-4-5-7/10-9 /10-12-14-|
E||------------------------|

------ PART 7 ------
GUITAR ONE - distortion

e||-------------|
B||-------------|
G||-13-13-11-11-|
D||-15-14-13-11-|
A||-------------|
E||-------------|
Comments