My Chemical Romance - Under Pressure Chords & Tabs

 

Under Pressure Chords & Tabs

My Chemical Romance Chords & Tabs

Version: 1 Type: Tab

Under Pressure Tab

   
Okay This is My chemical romance and The Used's version of David Bowie and Queens
"Under pressure" Which was made in aid of the tsunami

You'll have to listen to the song to get it right.
I'm sorry i didn't put the strumming in figure it out..

GUITARS:
Guitar 1 - Ray (My chemical romance) standard tuning
Guitar 2 - Quinn (The Used) Drop D
Guitar 3 - Frank (My chemical romance) standard tuning

Intro:
Guitar 3 x5 (clean)

e|-------------------|
B|-------------------|
G|-12-11-9/11\\\\9-7-|
D|--x-x--x/x-\\\\x-x-|
A|-10-9--7/9-\\\\7-5-|
E|-------------------|

Guitar 1 x2 (Clean)

e|----5------5------3------0---2-|
B|---7-7----5-5----3-3----2-3-3--|
G|--7---7--6---6--4---4--2---2---|
D|-0------0------0------0--------|
A|-------------------------------|
E|-------------------------------|

Guitar 2 is quiet

Verse:

Guitar 1 x2 (clean)

e|--5-----9------7------5------|
B|----7-----10-----8---5-------|
G|-7-7-7-9-9--9-7-7-7-6--764---|
D|--------------------------75-|
A|-----------------------------|
E|-----------------------------|

x2

e|----5------5------3------0---2-|
B|---7-7----5-5----3-3----2-3-3--|
G|--7---7--6---6--4---4--2---2---|
D|-0------0------0------0--------|
A|-------------------------------|
E|-------------------------------|

Guitar 2 x4 (Distortion)

e|-------------------------------|
B|-------------------------------|
G|-5-9-7-7-----------------------|
D|-5-7-5-0-----------------------|
A|-7-7-5-0-----------------------|
D|---7-5-0-----------------------|

Guitar 3 x4 (Distortion)

e|-2---3-2--------------------------|
B|-3-2-3-3--------------------------|
G|-2-2-0-2--------------------------|
D|-0-2-0-0--------------------------|
A|---0-2----------------------------|
E|-----3----------------------------|

Chorus:

Guitar 1 x3 (distortion)

e|-3-------------------------------|
B|-3-2-----------------------------|
G|-0-2-----------------------------|
D|-0-2-----------------------------|
A|-2-0-----------------------------|
E|-3-------------------------------|

Guitar 2 x3 (diostortion)

e|-------------------------------|
B|-------------------------------|
G|-6-7-9-11----------------------|
D|-x-x-x-x-----------------------|
A|-4-5-7-9-----------------------|
D|-------------------------------|

Guitar 3 x3 (distortion)

e|-------------------------------|
B|-------------------------------|
G|-------------------------------|
D|-5-7---------------------------|
A|-5-7---------------------------|
E|-3-5---------------------------|

Little Interlude:

Guitar 1 x1 (distortion)

e|----20----3---2~------------------|
B|---3--2-2-3-2-3~------------------|
G|--2----2--0-2-2~------------------|
D|-0--------0-2-0~------------------|
A|----------2-0---------------------|
E|----------3-----------------------|

Guitar 2 x1 (distortion)

e|---------------------------------|
B|---------------------------------|
G|-7~-7-9-7~-----------------------|
D|-7~-5-7-7~-----------------------|
A|-5~-5-7-5~-----------------------|
D|----5-7--------------------------|

Guitar 3 x1 (distortion)

e|-2~-----------------------------|
B|-3~-3-2-------------------------|
G|-2~-0-2-7~----------------------|
D|-0~-0-2-7~----------------------|
A|----2-0-5~----------------------|
E|----3---------------------------|

Then Play Verse Again

Then Play Chorus Again

Then Play The Little Interlude

Then:

Bridge/Solo: (after the little interlude let the A chord ring and play this):

Guitar 1 x1 (clean)

e|-3~----3~--------------------------------|
B|-3~-1~-3~-1~-----------------------------|
G|-0~-0~-0~-0~-----------------------------|
D|-0~-2~-0~-2~-----------------------------|
A|-2~-3~-2~-3~-----------------------------|
E|-3~----3~--------------------------------|

Guitars 2,3 silent..

Then:
Guitar 1, then solo:

e|-----------------------------------------------------|
B|-----------------------------------------------------|
G|----------55555555-----------------------------------|
D|-55555555-55555555-----------------------------------|
A|-55555555-33333333-----------------------------------|
E|-33333333--------------------------------------------|
PM ........ ........
[ Tab from: http://www.guitartabs.cc/tabs/m/my_chemical_romance/under_pressure_tab.html ]
e|---------------------------------------------------------|
B|---------------------------------------------------------|
G|--------5-7-9-9b-9-7-------------7-9-7-5----6h7-9-10-12b-|
D|-/7--7---------------10-8b--8-10---------7b--------------|
A|---------------------------------------------------------|
E|---------------------------------------------------------|

e|-----------------------------------10-----10------------|
B|-----10------10-----10--10h13-13b----13b----13b-13-12---|
G|-12b-----12b----12b-------------------------------------|
D|--------------------------------------------------------|
A|--------------------------------------------------------|
E|--------------------------------------------------------|


e|----------------------------------|
B|-12-11-9-11-9-7-9-7---------------|
G|--------------------9-7-5-7-5-4-5-|
D|----------------------------------|
A|----------------------------------|
E|----------------------------------|

e|-------------------------------------------|
B|-------------------------------------------|
G|-------------------------------------------|
D|7-9-7-5-4-5-5-4-5--------------------------|
A|-------------------7-5-4-5-4---------------|
E|-----------------------------7-9-7-5-4-5---|


Guitar 2 (distortion)

e|---------------------------------------------------|
B|---------------------------------------------------|
G|----------55555555---------------------------------|
D|-55555555-55555555-7-3-7-3-7-3-12-7777777777777777-|
A|-55555555-33333333-7-3-7-3-7-3-12-7777777777777777-|
D|-55555555----------7-3-7-3-7-3-12-7777777777777777-|
PM ........ ........                ................


Guitar 3 (distortion)

e|---------------------------------------------------|
B|---------------------------------------------------|
G|----------55555555---------------------------------|
D|-55555555-55555555-7-3-7-3-7-3-12-7777777777777777-|
A|-55555555-33333333-7-3-7-3-7-3-12-7777777777777777-|
E|-33333333----------5-1-5-1-5-1-10-5555555555555555-|
PM ........ ........                ................

Then when he sings: "can we give ourselves another chance", play this:

Guitar 1: (distortion)

e|-------------------------------------|
B|-------------------------------------|
G|-7-----------------------------------|
D|-7-5-7-------------------------------|
A|-5-5-7-------------------------------|
E|---3-5-------------------------------|

Guitar 2: (distortion)

E|-------------------------------------|
B|-------------------------------------|
G|-7-7-9-------------------------------|
D|-7-5-7-------------------------------|
A|-5-5-7-------------------------------|
D|---5-7-------------------------------|

Guitar 3 the same as guitar 1.. (distortion)

Then play this: (this before the outro)

Guitar 1 (distortion)

e|-------------------------------------|
B|-------------------------------------|
G|-------------------------------------|
D|-5-7---------------------------------|
A|-5-7---------------------------------|
E|-3-5---------------------------------|

Guitar 2 (distortion)

e|-------------------------------------|
B|-------------------------------------|
G|-7-9---------------------------------|
D|-5-7---------------------------------|
A|-5-7---------------------------------|
D|-5-7---------------------------------|

Guitar 3, same as guitar 1.. (distortion)

Then, Outro:

Guitar 1 (Distortion)

e|-2---3-2--------------------------|
B|-3-2-3-3--------------------------|
G|-2-2-0-2--------------------------|
D|-0-2-0-0--------------------------|
A|---0-2----------------------------|
E|-----3----------------------------|

Guitar 2 (distortion)

e|-------------------------------|
B|-------------------------------|
G|-5-9-7-7-----------------------|
D|-5-7-5-0-----------------------|
A|-7-7-5-0-----------------------|
D|---7-5-0-----------------------|

Guitar 3 (distortion)

e|-2---3-2--------------------------|
B|-3-2-3-3--------------------------|
G|-2-2-0-2--------------------------|
D|-0-2-0-0--------------------------|
A|---0-2----------------------------|
E|-----3----------------------------|

Then Little Interlude, and Done!!

I'm not 100% sure about this, but I think it's pretty close