My Chemical Romance - To The End Chords & Tabs

 

To The End Chords & Tabs

My Chemical Romance Chords & Tabs

Version: 1 Type: Bass Tab 0 ratings
1 star 2 stars 3 stars 4 stars 5 stars
comments

To The End Bass Tab

   
song - To The End
Artist - MCR
CD - Three Cheers for Sweet Revenge
Bassist - Mikey Way


Verse  (start at "This elevator only goes up to ten)
G|---------------------------------|
D|---------------------------------|
A|---------------------------------|
E|-10-10-10-10-9-9-9-9-6-6-6-6-3-3-|

Pre-Chrorus "would you marry me?"
G|----------------------------------------------------|
D|----------------------------------------------------|
A|----------------------------------------------------|
E|-3333333333333333-1111111111111111-0000000000000000-|

G|------------------|
D|------------------|
A|------------------|
E|55555555-99999999-|

Chorus "Say Goodbye"
G|--------------------------------------------------------|
D|--------------------------------------------------------|
A|--------------------------------------------------------|
E|-10-10-10-10-10-10-8-8-8-8-8-8-5-5-5-5-5-5-6-6-6-6-6-6-6|

Break 
G|------------------|
D|------------------|
A|------------------|
E|--10-10-----10-10-|
[ Tab from: http://www.guitartabs.cc/tabs/m/my_chemical_romance/to_the_end_btab.html ]
verse #2 "she keeps a picture of the body she lends"
G|----------------------------------------------------|
D|----------------------------------------------------|
A|----------------------------------------------------|
E|-10-10-10-10-10-10-10--9-9-9-9-9-9-9--6-6-6-6-6-6-6-|

G|---------------|
D|---------------|
A|---------------|        
E|-3-3-3---5-5-5-|

Verse #2 2x

Chorus 2x

Bridge
G|-------------------------------------|
D|-------------------------------------|
A|-------------------------------------|
E|-10-10-10-10-6-6-6-6-5-5-5-5-6-6-6-6-|

Bridge - 2x

Repeat Bridge 2 more times with faster strumming

Chorus - 2x

Outro
G|-------------------------------------------------------|
D|-------------------------------------------------------|
A|-------------------------------------------------------|
E|-15-15-15-15-15-15-15-15-15-15-10-10-10-10-10-10-10-10-|

G|-----------------|R|-----|
D|-----------------|E|-----|
A|-----------------|S|-----|
E|-6-6-6-6-6-6-6-6-|T| -10~|

I think everything is right except maybe the very end. I'm not sure if got the
right note but if you figure it out then e-mail it to me at ska_skankin_chick@yahoo.com

tankyou and have fun
Comments