My Chemical Romance - This Is The Best Day Ever Chords & Tabs

 

This Is The Best Day Ever Chords & Tabs

My Chemical Romance Chords & Tabs

Version: 1 Type: Bass Tab

This Is The Best Day Ever Bass Tab

   
Intro

G|--------------------------------|
D---------------------------0-0---|
A|----------------------2-2-------|
E|-------------3-3-3-3------------|
Play Quietly

G|------------------------------------|
D|------------------------------------|
A|------------------------------------|
E|-2-2-2-2-3-3-3-3-3-5-5-5-5-2-2-2----|
Play Loudly 

G|----------------------------------
D|-----------------------------0-0--
A|-------------------------2-2------
E|-0-0-0-0-2-2-2-2-3-3-3-3---------- 
Softly

[ Tab from: http://www.guitartabs.cc/tabs/m/my_chemical_romance/this_is_the_best_day_ever_btab.html ]
G|------------------------------------|
D|------------------------------------|
A|------------------------------------|
E|-2-2-2-2-3-3-3-3-3-5-5-5-5-22222222-|
Loudly                      |________|
                               FAST
Verse
 
G|---------------------------------------|
D|-----------------------------00-0------|
A|-------------------------22-2----------|
E|-00-0-00-22-2-22-33-3-33---------------|

G|--------------------------|
D|--------------------------|
A|--------------------------|
E|22-2-22-33-3-33-55-5-55---|

Chorus

G|-----------------------------------|
D|-----------------------------------|
A|-----------------------------------|
E|-0-0-000-2-2-222-3-3-333-2-2-2222--|

G|-----------------------------------|
D|-----------------------------------|
A|-----------------------------------|
E|-2-2-222-3-3-333-5-5-555-2-2-222---|