My Chemical Romance - Thank You For The Venom Chords & Tabs

 

Thank You For The Venom Chords & Tabs

My Chemical Romance Chords & Tabs

Version: 7 Type: Tab 0 ratings
1 star 2 stars 3 stars 4 stars 5 stars
comments

Thank You For The Venom Tab

   
Band: My Chemical Romance
Album: Three cheers for sweet revenge
Song: Thank you for the venom

Tuning: eBGDAE
all notes are quavers (unless otherwise stated). a note left by 2 dashes is a crotchet.. 
u can hear that when u listen to it.
also, when i say "11 times" etc. it's jus repeating the singular note/chord preceding 
and nothing before that, so

D|-7h9-9 11 times ------------------------|

means
D|-7h9-9-9-9-9-9-9-9-9-9-9-9-|


intro
e|---------------------------------------------------------------|
B|---------------------------------------------------------------|
G|---------------------------------------------------------------|
D|---------------------------------------------------------------|
A|-2-4-5-1-2-----0-2-----5-4-2-1-------7---9---10----------------|
E|-----------2-3-----3-2---------3-2-1---0---0----0--------------|

e||---------------------------------------------------------|
B||---------------------------------------------------------|
G||---------------------------------------------------------|
D||-----2-------------------------4s7---5---4---2p0---------|
A||---------5---4---2-4-5-1-2-------------------------------|
E||-2-2---2---2---2-----------2-3-----0---0---0-------------|

e|----------------------------- ||-----------------------|
B|----------------------------- ||-----------------------|
G|-----------------------------.||-----------------------|
D|-----2-------4---------------.||-----------------------|
A|---------5-------4-4---4-4--- ||------5---4---2--------|
E|-0-0---2---2---2-2-2---2-2--- ||--2-2---2---2----------|

verse1
e|-----------------------------------------------------------------|
B|-----------------------------------------------------------------|
G|---------------------------------7-7-7-7-7-7-7-7-6-6-6-6-6-6-6-6-|
D|-9-9-9-9-9-9-9-9-9-9-9-9-9-9-9-9-9-9-9-9-9-9-9-9-9-9-9-9-9-9-9-9-|
A|-----------------------------------------------------------------|
E|-----------------------------------------------------------------|

e|-----------------------------------------------------------------|
B|-----------------------------------------------------------------|
G|------------------------------7-7-7-7---9--6-6-6-6---------------|
D|-4-4-4-4-4-4-5-4-4-4-4-4-4---------------------------9-----------|
A|-4-4-4-4-4-4-5-4-4-4-4-4-4----5-5-5-5---7--4-4-4-4---9-----------|
E|-2-2-2-2-2-2-3-2-2-2-2-2-2-0-------------------------7-----------|

e|---------------------------------------------------------------------------|
B|---------------------------------------------------------------------------|
G|---------------9-9-9-x-11-11-11-x-----------------14-14-14-x-11-11-11-x-x--|
D|-9-9-x-9-9-9-x--------------------9-9-9-x-9-9-9-x--------------------------|
A|-9-9-x-9-9-9-x-7-7-7-x-9--9--9--x-9-9-9-x-9-9-9-x-12-12-12-x--9--9--9-x-x--|
E|-7-7-x-7-7-7-x--------------------7-7-7-x-7-7-7-x--------------------------|

e|------------------------------------------------------------|
B|------------------------------------------------------------|
G|----------------------------7-7-7-7-7-7-9--11-11-11-11-11---|
D|----4-4-4-4-5----4-4-4-4------------------------------------|
A|----4-4-4-4-5----4-4-4-4----5-5-5-5-5-5-7--9---9--9--9--9---|
E|-2--2-2-2-2-3-2--2-2-2-2-0----------------------------------|

pre chorus
e|--------------------------------------------------------------------|
B|--------------------------------------------------------------------|
G|--------------------------------------------------------------------|
D|-5--5-5-5-5-5-5-----------------------------------------------------|
A|-5--5-5-5-5-5-5-----------------------------------------------------|
E|-3--3-3-3-3-3-3-5-5-5-5-7-7-7-7-6--6-6-6-6-6-6-7-7-7-7-9-9-9-9------|

e|----------------------------------------------------------------------|
B|----------------------------------------------------------------------|
G|----------------------------------------------------------------------|
D|-5--5-5-5-5-5-5-5-5-5-5-5-5-5-5-7--7-7-7-7-7-9-9-9-9-9-11-11-9--------|
A|-5--5-5-5-5-5-5-5-5-5-5-5-5-5-5-7--7-7-7-7-7--------------------------|
E|-3--3-3-3-3-3-3-3-3-3-3-3-3-3-3-5--5-5-5-5-5-7-7-7-7-7--9--9-7--------|

chorus
e|---------------------------------------------------------------------------|
B|---------------------------------------------------------------------------|
G|-------------------------------------------------------7 17 times ---------|
D|---7- 15 times -7- 16 times -4- 16 times ---------------          ---------|
A|---5-          -4-          -2-          -5- 16 times -5          -------|
E|------------------------------------------3-          -----------------|
[ Tab from: http://www.guitartabs.cc/tabs/m/my_chemical_romance/thank_you_for_the_venom_tab_ver_7.html ]
e|--------------------------------------------------------------|
B|--------------------------------------------------------------|
G|-9- 4 times -11-11s6-6-6-6-6-6-6-6-7-7-7-7-9-9----------------|
D|---         --------------------------------------------------|
A|-7-         --9--9s4-4-4-4-4-4-4-4-5-5-5-5-7-7----------------|
E|--------------------------------------------------------------|

e|------------------------------------------------------------|
B|------------------------------------------------------------|
G|------------------------------------------------------------|
D|-4- 16 times -----------------------------------------------|
A|-2-          --5- 16 times ---------------------------------|
E|---------------3-           --------------------------------|

"solo" (in triplets.. ie. 3 of these notes make up a crotchet)
e|-------------------------------------------------------------------|
B|-------------------------------------------------------------------|
G|-4- 17 times --4s7-7-7-7-7-7-4s7----7- 11 times -------------------|
D|---          -------------------------          -------------------|
A|---          ------------------------------------------------------|
E|-------------------------------------------------------------------|


e|----------------------------------------------------------|
B|----------------------------------------------------------|
G|-6-6-6-6-6-6-4h6-6-6-6-6-6-4h6-6-6-6-6-6-6-6-6-6-6-6------|
A|----------------------------------------------------------|
E|----------------------------------------------------------|

e|------------------------------------------------------------------|
B|------------------------------------------------------------------|
G|------------------------------------------------------------------|
D|-7-7-7-7-7-7s9-9-9-9-9-9-7h9-9 11 times --------------------------|
A|------------------------------          --------------------------|
E|------------------------------------------------------------------|

e|-------------------------------------------------------------|
B|-------------------------------------------------------------|
G|-7- 6 times --6- 6 times --11- 8 times --11s7-7-7------------|
D|---         ----         -----         ----------------------|
A|-------------------------------------------------------------|
E|-------------------------------------------------------------|

e|------------------------------------------------------------------|
B|------------------------------------------------------------------|
G|-4- 5 times --4s11-11-11-11-11-11-7h11-11- 8 times ---------------|
D|---         ------------------------------         ---------------|
A|------------------------------------------------------------------|
E|------------------------------------------------------------------|

e|------------------------------------------------|
B|------------------------------------------------|
G|-12-12-12-9-9-9-9-9-9-6h9-9-9-9-9-9-------------|
D|------------------------------------------------|
A|------------------------------------------------|
E|------------------------------------------------|

e|------------------------------------------------------------------------|
B|-------------------------------------------------------------12-14------|
G|-6h9-9- 10 times --9/11-11-11-11-11-11-12~-11-12-14-11-12-14------------|
D|-------          -------------------------------------------------------|
A|------------------------------------------------------------------------|
E|------------------------------------------------------------------------|

e|-------------12-14-15s17-17b19--17b19r17-15-14-15-14----14-----------------|
B|-15-12-14-15-----------------------------------------17----17b19~----------|
G|---------------------------------------------------------------------------|
D|---------------------------------------------------------------------------|
A|---------------------------------------------------------------------------|
E|---------------------------------------------------------------------------|

e|-14-15-14----14----------19-15/14-12-14-12-10-9-10p9----9----------------|
B|----------17----17-15-14-----------------------------12---12p10-12-10-8/7|
G|-------------------------------------------------------------------------|
D|-------------------------------------------------------------------------|
A|-------------------------------------------------------------------------|
E|-------------------------------------------------------------------------|

e|-------------------------------------------------------------|
B|-8p7---7-----------------------------------------------------|
G|-----9---9p7-9p7/6-7p6---6-----------------------------------|
D|-----------------------9---9p7-9p7----7----------------------|
A|-----------------------------------10---10p9p7---------------|
E|-----------------------------------------------9~------------|


ps- i take no credit in these tabs- only for typin them out to spread the "MCR-ness"

| /  slide up
| \  slide down
| h  hammer-on
| p  pull-off
| ~  vibrato
| +  harmonic
| x  Mute note
===============================================================================
Comments