My Chemical Romance - Interlude Chords & Tabs

 

Interlude Chords & Tabs

My Chemical Romance Chords & Tabs

Version: 1 Type: Tab 4 ratings
1 star 2 stars 3 stars 4 stars 5 stars
comments

Interlude Tab

   
I've been searching this site loads to get My Chemical Romance's interlude off the 3 cheers for 
sweet revenge album and had no luck! So I took it upon myself to work it out- 
this might not be a 100% right but it sounds okay! Well enjoy! and if 'it's not okay' (had to put
a cheesy pun in somewhere) then email me at o_greenday_o@hotmail.co.uk Thanks, Aimz

Tuning: e B G D A e
           

Intro/Verse 1
[ Tab from: http://www.guitartabs.cc/tabs/m/my_chemical_romance/interlude_tab.html ]
e |-----------2----------------2----------------2----------------2------|
B |-------2-------2--------2-------2--------2-------2--------2-------2--|
Gb|-----0---0---0--------0---0---0--------0---0---0--------0---0---0----| 
D |-------------------------------------0----------------0--------------| 
A |---------------------------------------------------------------------| 
E |---2----------------2------------------------------------------------| 
                                                                        (2x)
e |-----------2----------------2----------------2----------------2------| 
B |-------2-------2--------2-------2--------2-------2--------2-------2--| 
Gb|-----0---0---0--------0---0---0--------0---0---0--------0---0---0----| 
D |---------------------------------------------------------------------| 
A |---4----------------4----------------0-------------------------------| 
E |------------------------------------------------------4--------------|


Verse 2

e |---------------------------------------------------------------------|
B |-----------2----------------2----------------0----------------0------| 
Gb|-------3-----3----------3-----3----------2-------2--------2-------2--| 
D |-----2---2-----2------2---2-----2------2---2---2--------2---2---2----| 
A |---0----------------0------------------------------------------------| 
E |-------------------------------------0----------------0--------------| 
                                                                        (2x)
e |---------------------------------------------------------------------|
B |-----------2----------------2----------------2----------------2------| 
Gb|-------3-----3----------3-----3----------5-----5----------5-----5----| 
D |-----4---4-----4------4---4-----4------3---3-----3------3---3-----3--| 
A |-------------------------------------4----------------4--------------| 
E |---2----------------2------------------------------------------------|


Ending:

e |---0~---2~---| Broken chord,
B |---2~--------| starting from
Gb|---5~--------| A-string.
D |---3~--------|
A |---4~--------|
E |-------------|
Comments