My Chemical Romance - I'm Not Okay (i Promise) Chords & Tabs

 

I'm Not Okay (i Promise) Chords & Tabs

My Chemical Romance Chords & Tabs

Version: 7 Type: Tab 0 ratings
1 star 2 stars 3 stars 4 stars 5 stars
comments

I'm Not Okay (i Promise) Tab

Ok. This is just the fingering for the main guitar on the intro. This is my first tab so
sorry if you think it sucks but it sounds exactly like the intro. The picking on this
intro is very fast so try to keep up. This will take you from about 0:05 to about 0:26/
0:27.

Tab by Phill (hell ya)
Normal Tuning.

e[--10--10--10--10------------------------------------------]
b[------------------10--10--10--10--8--8--8--8--7--7--7--7--]
g[----------------------------------------------------------]
d[----------------------------------------------------------]
a[----------------------------------------------------------]
e[----------------------------------------------------------]
[ Tab from: http://www.guitartabs.cc/tabs/m/my_chemical_romance/im_not_okay_i_promise_tab_ver_7.html ]
e[--10--10--10--10------------------------------------------]
b[------------------10--10--10--10--8--8--8--8--7--7--7--7--]
g[----------------------------------------------------------]
d[----------------------------------------------------------]
a[----------------------------------------------------------]
e[----------------------------------------------------------]

e[----------------------------------------------------------]
b[--8--8--8--8--10--10--10--10--5--5--5--5--5--5--5--5------]
g[----------------------------------------------------------]
d[----------------------------------------------------------]
a[----------------------------------------------------------]
e[----------------------------------------------------------]

e[----------------------------------------------------------]
b[8--8--8--8--10--10--10--10--12--12--12--12--14--14--14--14]
g[----------------------------------------------------------]
d[----------------------------------------------------------]
a[----------------------------------------------------------]
e[----------------------------------------------------------]

Well, there you go. I'm not totally positive if you do each note the way I have it or
if you double the number of times you pick each note. Just do it to your preference.
Have fun, enjoy the music, My Chemical Romace rocks.
Comments