My Chemical Romance - I'm Not Okay (i Promise) Chords & Tabs

 

I'm Not Okay (i Promise) Chords & Tabs

My Chemical Romance Chords & Tabs

Version: 6 Type: Tab 0 ratings
1 star 2 stars 3 stars 4 stars 5 stars
comments

I'm Not Okay (i Promise) Tab

   
-------------------------------------------------------------------------------
	Oct. 9, 2004		     MY CHEMICAL ROMANCE- I'M NOT OKAY
-------------------------------------------------------------------------------
Tabbed by: cornchips
Email: chinesetakeout13@yahoo.com - email with changes, or comments.

Tuning: Standard


with approximatley 1:52 into the song it all begins...

e|---------------------------------------------------------------------------|
B|---------------------------------------------------------------------------|
G|--------16b(18)-16b(18)-16b(18)--16-14-13-14-13----13-14-16-16b(18)-16b(18)|
D|------------------------------------------------14-------------------------|
A|---------------------------------------------------------------------------|
E|---------------------------------------------------------------------------|
[ Tab from: http://www.guitartabs.cc/tabs/m/my_chemical_romance/im_not_okay_i_promise_tab_ver_6.html ]
e|---------------------------------------------------12b(14)-12-10-12-10-9---|
B|------------------14-------------------------------------------------------|speed picks up here
G|-16b(18)-16-14-16---14---14-13-14-16-14-13-14-16---------------------------|
D|---------------------------------------------------------------------------|
A|---------------------------------------------------------------------------|
E|---------------------------------------------------------------------------|

e|-10-9-9b(10)-7~--------------------------------10-13-10--------------------|
B|------------------------------------------10-13--------13-10~--------------|
G|-------------------------------------10-12---------------------------------|
D|--------------------------------10-12--------------------------------------|
A|-------------------------/10-12--------------------------------------------|
E|---------------------------------------------------------------------------|do at very deluxe ultra speed

I think that this is 100%; if you have changes or anything just email them to me, or
make your own tab. See yea dudes.   


  b  bend
| /  slide up
| \  slide down
| h  hammer-on
| p  pull-off
| ~  vibrato
| +  harmonic
| x  Mute note
===============================================================================
Comments