My Chemical Romance - I'm Not Okay (i Promise) Chords & Tabs

 

I'm Not Okay (i Promise) Chords & Tabs

My Chemical Romance Chords & Tabs

Version: 2 Type: Tab 1 rating
1 star 2 stars 3 stars 4 stars 5 stars
comments

I'm Not Okay (i Promise) Tab

   
I cant believe there are no tabs to there new songs!
Tabbed bye Austin!
Tuning: D
Intro:
Palm Mute:.

|--------------|
|--------------|
|---5----------|
|---5----------| 24x
|---3----------|
|--------------|

Chorus:
|--------------------------------|
|--------------------------------|
|--5-----------------9-----------|
|--5--24x---7--------9--48x------|
|--3--------7--24x---7-----------|
|-----------7--------------------|

[ Tab from: http://www.guitartabs.cc/tabs/m/my_chemical_romance/im_not_okay_i_promise_tab_ver_2.html ]
Other Part:
|--------------------------------------------------------------------|
|--------------------------------------------------------------------|
|-14--12--11---9----------9--11--9-------9--11--12--14---------------|
|--x---x---x--x--2xthen---x---x--x-then--x---x---x---x---------------|
|-12--10---9---7----------7---9--7-------7--9---10--12---------------|
|--------------------------------------------------------------------|


Verse:
|---------------------------------------------|
|---------------------------------------------|
|--555------------------999-------------------|
|--555---6x---777-------999--12x--------------|
|--333--------777--6x---777-------------------|
|--..---------777-----------------------------|
              ..
Comments