My Chemical Romance - I'm Not Okay (i Promise) Chords & Tabs

 

I'm Not Okay (i Promise) Chords & Tabs

My Chemical Romance Chords & Tabs

Version: 4 Type: Bass Tab

I'm Not Okay (i Promise) Bass Tab

I'm Not Okay (I Promise)
By My Chemical Romance
This songs BA!!!

Intro- 0:02
G--------------------|
D--------------------|
A--555555555555-5-5--|
E--------------------|

Intro (Continued)-0:05
G-------------------------------------------------------------------|
D-------------------------------------------------------------------|
A--55555555555555555555555555555555-2222222222222222222222222222222-|
E-------------------------------------------------------------------|

G-------------------------------------------------------------------|
D-------------------------------------------------------------------|
A----------------------------------0000000000000000000000000000000--|
E-00000000000000000000000000000000----------------------------------|

Verse- 0:26
G------------------------------------------------------------------------|
D------------------------------------------------------------------------|
A--55555555555555555555555555555555-4444-2222222222222222222222222222222-|
E------------------------------------------------------------------------|

G-------------------------------------------------------------------|
D-------------------------------------------------------------------|
A----------------------------------0000000000000000000000000000000--|
E-00000000000000000000000000000000----------------------------------|

Chorus- 0:48
G-------------------------------------------------------------------|
D-------------------------------------------------------------------|
A--55555555555555555555555555555555-2222222222222222222222222222222-|
E-------------------------------------------------------------------|

G-------------------------------------------------------------------|
D-------------------------------------------------------------------|
A----------------------------------0000000000000000000000000000000--|
E-00000000000000000000000000000000----------------------------------|

Verse- 1:09
G------------------------------------------------------------------------|
D------------------------------------------------------------------------|
A--55555555555555555555555555555555-4444-2222222222222222222222222222222-|
E------------------------------------------------------------------------|
[ Tab from: http://www.guitartabs.cc/tabs/m/my_chemical_romance/im_not_okay_i_promise_btab_ver_4.html ]
G-------------------------------------------------------------------|
D-------------------------------------------------------------------|
A----------------------------------0000000000000000000000000000000--|
E-00000000000000000000000000000000----------------------------------|

Chorus- 1:30
G-------------------------------------------------------------------|
D-------------------------------------------------------------------|
A--55555555555555555555555555555555-2222222222222222222222222222222-|
E-------------------------------------------------------------------|

G-------------------------------------------------------------------|
D-------------------------------------------------------------------|
A----------------------------------0000000000000000000000000000000--|
E-00000000000000000000000000000000----------------------------------|

Bridge (During Solo)- 1:51
G----------------------------------------------------------------------|
D----------------------------------------------------------------------|
A--0-1-2-2-2-2-0-0-0-0------------------0-0-0-0------------------------|
E----------------------4-4-4-4-0-0-0-0---------4-4-4-4-2-2-2-2-0-0-0-0-|

G----------------------------------|
D----------------------------------|
A-2-2-2-2-0-0-0-0------------------|
E-----------------4-4-4-4-0-0-0-0--|

After Solo
G---------------------------------------------------------------------|
D---------------------------------------------------------------------|
A--0000000000000000-5555555555555555-777777777777777-1010101010101010-|
E---------------------------------------------------------------------|

G-------------------|
D-------------------|
A-1010101010101010--|
E-------------------| (Those are 10s not 1s and 0s)

BREAK

Come in on "Okay"- 2:24
G------|
D------|
A--0*--|
E------|

"I'M OKAY!Trust me."- 2:37
G------------|
D------------|
A------------|
E--55555555--|
E------------|

Chorus- 2:40
G-------------------------------------------------------------------|
D-------------------------------------------------------------------|
A--55555555555555555555555555555555-2222222222222222222222222222222-|
E-------------------------------------------------------------------|

G-------------------------------------------------------------------|
D-------------------------------------------------------------------|
A----------------------------------0000000000000000000000000000000--|
E-00000000000000000000000000000000----------------------------------|

Outro- 3:01
G------|
D------|
A--5*--|
E------|

SYMBOLS- * = Let Ring

Peace!