My Chemical Romance - Helena Live Chords & Tabs

 

Helena Live Chords & Tabs

My Chemical Romance Chords & Tabs

Version: 1 Type: Tab 0 ratings
1 star 2 stars 3 stars 4 stars 5 stars
comments

Helena Live Tab

   
this is how its played live but also works with the recorded version just not the first 
of the intro.to all mcr poser fans who likes them because of mtv.. this songs about 
and mikes grandma not some chick.

intro:
ray (guitar one)
e-------------------------------------------------|
b-------------------------------------------------|
g-------------------------------------------------|
d-------------------------------------------------|
a-777777101010107777777775555555557777771010101010
e-------------------------------------------------PM
repeat as many times

Frankie (guitar 2)
e-------------------------------------------------|
b-------------------------------------------------|
g-------------------------------------------------|
d--14~---9-11-13-11-9-11-13-11--------------------|
a-------------------------------------------------|
e-------------------------------------------------|

guitar 2
e-------------------------------------------------|
b-------------------------------------------------|
g-------------------------------------------------|
d--14141414111111111313131313999999111111113131313
a-------------------------------------------------|
e-------------------------------------------------|PMthats eleven (11)

d--14141414141111111199999999911111111313131313--PM

guitar 1
e--------------------------------------|
b--------------------------------------|
g--------------------------------------|
d--------------------------------------|PM
a7777777774444444466666622222444446666-
E--------------------------------------

a-77777744444442222244444666666--------PM

verse guitar 1
e----------------------------------------------------------------------|
B----------------------------------------------------------------------|
G------------6--------4------2-----------------------------------------|
D--x-x-x-x---6---2----4------2-----------------------------------------|
A--x-x-x-x---4---2----2------0-----------------------------------------|
E--x-x-x-x-------0-----------------------------------------------------|

guitar 2
e---------------------------|
B---------------------------|
G---------------------------|
D--x-x-x-x--------9---------|
A--x-x-x-x---11---7---9---7-|
E--x-x-x-x----9-------7---5-|

pre chorus
[ Tab from: http://www.guitartabs.cc/tabs/m/my_chemical_romance/helena_live_tab.html ]
pre chorus (guitar 2
e---------------------------------------------------|
B---------------------------------------------------|
G------------6------4-------------------------------|
D------------6------4-------------------------------|
A-7-----7----4------2----7---7----------------------|
E-4-----5----------------4---5----------------------|

guitar 1
e----------------------------------------------------|
B----------------------------------------------------|
G----------------------------------------------------|
D----------------------------------------------------|
A-7-----7--------------------------------------------|
E-4-----5--------------------------------------------|

chorus guitar 1

e-------------------------------------------------------|
B-------------------------------------------------------|
G--9----------------------------------------------------|
D--9-----9-------------11-------------------------------|
A--7-----9------9------11--------9----------------------|
E--------7------8-------9--------8----------------------|
didn't figure out Franks part yet

guitar 1
clean (if u want u can play the two strings in the e power cord)
e----------------------------------------------------------|
B---9-------9----------------------------------------------|
G-------9-------9------------------------------------------|
D----------------------------------------------------------|
A-7---7---7---7--------------------------------------------|
E----------------------------------------------------------|

bridge
strum clean frakie (guitar 2)
e---------------------------------------------------------------------|
B---------------------------------------------------------------------|
G-9---8---9--11---13--11---9---8---9--11---13--11---13---14---16------|
D-x---x---x---x----x---x---x---x---x---x----x---x----x----x----x------|
A-7---6---7---9---11---9---7---6---7---9---11---9---11---12---14------|
E---------------------------------------------------------------------|

guitar 1
e--------------------------------------------------------------------|
b--------------------------------------------------------------------|
g-9--11---13---14----------------------------------------------------|
d-x---x----x----x----------------------------------------------------|
a-7---9---11---12----------------------------------------------------|
e--------------------------------------------------------------------|

chorus till the end
thats it any mistakes or questions just emal bblingbling008@aol.com..Yes i try to keep 
real but im not gangsta or watever..MCR.. bunch of sexy sexy dudes
Comments