My Chemical Romance - Headfirst For Halos Chords & Tabs

 

Headfirst For Halos Chords & Tabs

My Chemical Romance Chords & Tabs

Version: 6 Type: Tab

Headfirst For Halos Tab

   
-------------------------------------------------------------------------------
			     Headfirst for Halos

-------------------------------------------------------------------------------
Tabbed by:Aperfectshot
Email:Afiguy176@yahoo.com

Tuning:Normal

Umm... i read the first intro tabs wich was very good, but if this is played right this sounds better.
its really has to flow.
email me with suggestions, compliments or complaints

e|-------------------------------------------------------------------------|
B|-9-8-6--9-8-6--9-8-6--9-8-6--9-8-6--9-8-6--9-8-6--9-8-6------------------|
G|-------------------------------------------------------------------------|
D|-------------------------------------------------------------------------|
A|-------------------------------------------------------------------------|
E|-------------------------------------------------------------------------|

e|-------------------------------------------------------------------------|
B|-8-7-5--8-7-5--8-7-5--8-7-5--8-7-5--8-7-5--8-7-5--8-7-5------------------|
G|-------------------------------------------------------------------------|
D|-------------------------------------------------------------------------|
A|-------------------------------------------------------------------------|
E|-------------------------------------------------------------------------|

e|-------------------------------------------------------------------------|
B|--6-5-3--6-5-3--6-5-3--6-5-3--6-5-3--6-5-3--6-5-3--6-5-3-----------------|
G|-------------------------------------------------------------------------|
D|-------------------------------------------------------------------------|
A|-------------------------------------------------------------------------|
E|-------------------------------------------------------------------------|

e|-------------------------------------------------------------------------|
B|-7-6-4--7-6-4--7-6-4--7-6-4--7-6-4--7-6-4--7-6-4--7-6-4------------------|
G|-------------------------------------------------------------------------|
D|-------------------------------------------------------------------------|
A|-------------------------------------------------------------------------|
E|-------------------------------------------------------------------------|
[ Tab from: http://www.guitartabs.cc/tabs/m/my_chemical_romance/headfirst_for_halos_tab_ver_6.html ]
e|-------------------------------------------------------------------------|
B|-9-8-6--9-8-6--9-8-6--9-8-6--9-8-6--9-8-6--9-8-6--9-8-6------------------|
G|-------------------------------------------------------------------------|
D|-------------------------------------------------------------------------|
A|-------------------------------------------------------------------------|
E|-------------------------------------------------------------------------|

e|-------------------------------------------------------------------------|
B|-8-7-5--8-7-5--8-7-5--8-7-5--8-7-5--8-7-5--8-7-5--8-7-5------------------|
G|-------------------------------------------------------------------------|
D|-------------------------------------------------------------------------|
A|-------------------------------------------------------------------------|
E|-------------------------------------------------------------------------|

e|-------------------------------------------------------------------------|
B|--6-5-3--6-5-3--6-5-3--6-5-3--6-5-3--6-5-3--6-5-3--6-5-3-----------------|
G|-------------------------------------------------------------------------|
D|-------------------------------------------------------------------------|
A|-------------------------------------------------------------------------|
E|-------------------------------------------------------------------------|

e|-------------------------------------------------------------------------|
B|-7-6-4--7-6-4--7-6-4--7-6-4--7-6-4--7-6-4--7-6-4--7-6-4------------------|
G|-------------------------------------------------------------------------|
D|-------------------------------------------------------------------------|
A|-------------------------------------------------------------------------|
E|-------------------------------------------------------------------------|


e|-------------------------------------------------------------------------|
B|--------7-------7--------------------------------------------------------|
G|--7~-7-9------9--7~-7-9-11-12-11-9-11p9h11p9h11p9------------------------|
D|---------9~-9------------------------------------------------------------|
A|-------------------------------------------------------------------------|
E|-------------------------------------------------------------------------|

e|------------------------------12-14-15~----------------------------------|
B|----------------12-14-15~---15-------------------------------------------|
G|---7-9-11-12~-12---------------------------------------------------------|
D|-------------------------------------------------------------------------|
A|-------------------------------------------------------------------------|
E|-------------------------------------------------------------------------|

| /  slide up
| \  slide down
| h  hammer-on
| p  pull-off
| ~  vibrato
| +  harmonic
| x  Mute note
===============================================================================