My Chemical Romance - Headfirst For Halos Chords & Tabs

 

Headfirst For Halos Chords & Tabs

My Chemical Romance Chords & Tabs

Version: 3 Type: Tab 0 ratings
1 star 2 stars 3 stars 4 stars 5 stars
comments

Headfirst For Halos Tab

   
Song: Headfirst For Halo's
Band: My Chemical Romance
Album: I Brought You My Bullets, You Brought Me Your Love

Gtr I: Ray Toro: Standard Tuning (e,B,G,D,A,e)
Gtr II: Frank Iero: Standard Tuning (e,B,G,D,A,e)

Intro now updated! x

Key:-

*:- Palm Mute
x:- String Mute
~:- Let Ring
/or\:- Slide


Intro Pt I (Repeat whole thing twice)

Gtr I (Slightly palm mute this)

e:|---------------------------------------------------------|
B:|-10p7---10p7---10p7---10p7---10p7---10p7---10p7---10p7---|
G:|------7------7------7------7------7------7------7------7-|
D:|---------------------------------------------------------|
A:|---------------------------------------------------------|
E:|---------------------------------------------------------|

e:|-------------------------------------------------|
B:|-8p7---8p7---8p7---8p7---8p7---8p7---8p7---8p7---|
G:|-----9-----9-----9-----9-----9-----9-----9-----9-|
D:|-------------------------------------------------|
A:|-------------------------------------------------|
E:|-------------------------------------------------|

e:|-------------------------------------------------|
B:|-7p5---7p5---7p5---7p5---7p5---7p5---7p5---7p5---|
G:|-----7-----7-----7-----7-----7-----7-----7-----7-|
D:|-------------------------------------------------|
A:|-------------------------------------------------|
E:|-------------------------------------------------|

e:|-------------------------------------------------|
B:|-8p7---8p7---8p7---8p7---8p7---8p7---8p7---8p7---|
G:|-----7-----7-----7-----7-----7-----7-----7-----7-|
D:|-------------------------------------------------|
A:|-------------------------------------------------|
E:|-------------------------------------------------|

Intro Pt II

e:|--------------------------------------------------------|
B:|---------7---------7------------------------------------|
G:|-7~--7-9---------9---7--7-9-11-12-11-9--11--9h11p9h11p9-|
D:|-----------9~--9----------------------------------------|
A:|--------------------------------------------------------|
E:|--------------------------------------------------------|

e:|--------------------------------------12-14/15-15~-|
B:|----------------------12-14/15-15--15--------------|
G:|-7~--7-9-11/12-12--12------------------------------|
D:|---------------------------------------------------|
A:|---------------------------------------------------|
E:|---------------------------------------------------|

Intro Pt's I & II

Gtr II

e:|--------------------------------------|
B:|--------------------------------------|
G:|-7~--4~----------7~--4~---------------|
D:|-7~--4~--4~--5~--7~--4~--4~--555-5-55-|
A:|-5~--2~--5~--5~--5~--2~--5~--555-5-55-|
E:|---------2~--3~----------2~--333-3-33-|
PM                              *** * **

e:|--------------------------------|
B:|--------------------------------|
G:|-7~--4~----------7~--4~---------|
D:|-7~--4~--4~--5~--7~--4~--4~--5~-|
A:|-5~--2~--5~--5~--5~--2~--5~--5~-|
E:|---------2~--3~----------2~--3~-|

Verse

Gtr I

e:|-------------------------------------------------------------|
B:|-------------------------------------------------------------|
G:|-11-11-11111111-11-11-11111111-11-11-11111111-11-11-11111111-|
D:|-x--x--x-x-x-x--x--x--x-x-x-x--x--x--x-x-x-x--x--x--x-x-x-x--|
A:|-9--9--9-9-9-9--9--9--9-9-9-9--9--9--9-9-9-9--9--9--9-9-9-9--|
E:|-------------------------------------------------------------|

e:|------------------------------------------------------|
B:|------------------------------------------------------|
G:|-12-12-12121212-12-12-12121212-12-12-12121212--12--12-|
D:|-x--x--x-x-x-x--x--x--x-x-x-x--x--x--x-x-x-x---x---x--|
A:|-10-10-10101010-10-10-10101010-10-10-10101010--10--10-|
E:|------------------------------------------------------|

Gtr II

e:|-------------------------------------|
B:|-------------------------------------|
G:|-7-7-7777-6-6-6666-4-4-4444-4-4-4444-|
D:|-7-7-7777-7-7-7777-4-4-4444-4-4-4444-|
A:|-5-5-5555-5-5-5555-2-2-2222-2-2-2222-|
E:|-------------------------------------|

e:|----------------------------------|
B:|----------------------------------|
G:|-9-9-9999-8-8-8888-7-7-7777--7--7-|
D:|-9-9-9999-9-9-9999-7-7-7777--7--7-|
A:|-7-7-7777-7-7-7777-5-5-5555--5--5-|
E:|----------------------------------|

Chorus

Gtr I

e:|-----------------------------------------------------------------|
B:|-------------------------------------------8-7-------------------|
G:|--------------------------/4-----------7-9-----9-7-6-9~-7~-9~-6~-| (x2)
D:|---4-7-4---4-7-4---4-7-4-----7-5-4--/9---------------------------|
A:|-5-------4-------------------------------------------------------|
E:|-----------------7-----------------------------------------------|

Gtr II

e:|---------------------------------------------------------------|
B:|---------------------------------------------------------------|
G:|-7~-77--6~-66--4~-44-4~-44--9-9-9999-8-8-8888-7-7-7777-7-7-7-6-| (x2)
D:|-7~-77--7~-77--4~-44-4~-44--9-9-9999-9-9-9999-7-7-7777-7-7-7-7-|
A:|-5~-55--4~-44--2~-22-2~-22--7-7-7777-6-6-6666-5-5-5555-5-5-5-5-|
E:|---------------------------------------------------------------|
PM                                                        *   *

Post Chorus

Gtr I
[ Tab from: http://www.guitartabs.cc/tabs/m/my_chemical_romance/headfirst_for_halos_tab_ver_3.html ]
e:|---------------------------------------------------------------------|
B:|---------------------------------------------------------------------|
G:|--------111111111--------11111111---------111111111--------111111111-|
D:|---------x-x-x-x----------x-x-x-x----------x-x-x-x----------x-x-x-x--|
A:|-9-9-9-9-9-9-9-9--9-9-9-9-9-9-9-9--9-9-9-9-9-9-9-9--9-9-9-9-9-9-9-9--|
E:|---------------------------------------------------------------------|
PM  * * * *          * * * *          * * * *          * * * *

e:|---------------------------------------------------------------------|
B:|---------------------------------------------------------------------|
G:|---------12121212---------12121212---------12121212---------12121212-|
D:|---------x-x-x-x----------x-x-x-x----------x-x-x-x----------x-x-x-x--|
A:|-1010101010101010-1010101010101010-1010101010101010-1010101010101010-|
E:|---------------------------------------------------------------------|
PM  * * * *          * * * *          * * * *          * * * *

Gtr II

e:|------------------------------------------------------------------------|
B:|------------------------------------------------------------------------|
G:|------------------------------------------------------------------------|
D:|-77777777-77777777-44444444-44444444-99999999-99999999-7777777777777777-|
A:|-55555555-44444444-22222222-22222222-77777777-66666666-5555555555555555-|
E:|------------------------------------------------------------------------|
PM  ******** ******** ******** ******** ******** ******** ****************

Repeat Verse

Repeat Chorus



Before Solo Both Gtr's

e:|----------------------|
B:|-------------------0~-|
G:|-4-444444444444444-2~-|
D:|-4-444444444444444-2~-|
A:|-2-222222222222222-0~-|
E:|----------------------|
PM    ***************

Solo 

Gtr I

e:|--------------------------------------------------------------------|
B:|--------------------------------------------------------------------|
G:|-11-11-11-11-11-11-11-11-11-11-11-11-11-11-9-11-11-11-11-9-7-9-11-9-|
D:|-x--x--x--x--x--x--x--x--x--x--x--x--x--x--x-x--x--x--x--x-x-x-x--x-|
A:|-9--9--9--9--9--9--9--9--9--9--9--9--9--9--7-9--9--9--9--7-5-7-9--7-|
E:|--------------------------------------------------------------------|

e:|--------------------------------------------------|
B:|--------------------------------------------------|
G:|-12-11-12\11/9/11-12-11-12-14-9-7-9-11-12-11-9-11-|
D:|-x--x--x--x--x-x--x--x--x--x--x-x-x-x--x--x--x-x--|
A:|-10-9--10\9-/7/9--10-9--10-12-7-5-7-9--10-9--7-9--|
E:|--------------------------------------------------|

e:|-10-9-10\9/10/12-14-12-10-9--10-9-10-12-14-12-10-9-|
B:|-x--x-x--x-x--x--x--x--x--x--x--x-x--x--x--x--x--x-|
G:|-7--6-7-\6/7/-9--11-9--7--6--7--6-7--9--11-9--7--6-|
D:|---------------------------------------------------|
A:|---------------------------------------------------|
E:|---------------------------------------------------|

e:|-15-14-15\14\12/14--15-14-15-17--12-10-12-14-15-14-12-14-10-|
B:|-x--x--x--x--x--x---x--x--x--x---x--x--x--x--x--x--x--x--x--|
G:|-12-11-12\11\9-/11--12-11-12-14--9--7--9--11-12-11-9--11-7--|
D:|------------------------------------------------------------|
A:|------------------------------------------------------------|
E:|------------------------------------------------------------|

Gtr II

e:|-------------------------------------|
B:|-------------------------------------|
G:|-7-7-7777-6-6-6666-4-4-4444-4-4-4444-|
D:|-7-7-7777-7-7-7777-4-4-4444-4-4-4444-|
A:|-5-5-5555-5-5-5555-2-2-2222-2-2-2222-|
E:|-------------------------------------|

e:|---------------------------------|
B:|---------------------------------|
G:|-9-9-9999-8-8-8888-7-7-7777-7--7-|
D:|-9-9-9999-9-9-9999-7-7-7777-7--7-|
A:|-7-7-7777-7-7-7777-5-5-5555-5--5-|
E:|---------------------------------|

e:|----|
B:|----|
G:|-7~-|
D:|-7~-|
A:|-5~-|
E:|----|

Gtr I

e:|--------10-------------------------|
B:|-----------------------------------|
G:|---7--7----------------------------|
D:|-------------/9-7\5\4--4-----------|
A:|-5-----------------------7\5-5---4-|
E:|-----------------------------------|

Outro

Gtr I

e:|-------------------------------------------------|
B:|-------------------------------------------------|
G:|-19-19-19-19-18-18-18-18-19-19-19-19-21-21-21-21-|
D:|-x--x--x--x--x--x--x--x--x--x--x--x--x--x--x--x--|
A:|-17-17-17-17-16-16-16-16-17-17-17-17-19-19-19-19-|
E:|-------------------------------------------------|

e:|-------------------------------------------------|
B:|-------------------------------------------------|
G:|-19-19-19-19-21-21-21-21-19-19-19-19-18-18-18-18-|
D:|-x--x--x--x--x--x--x--x--x--x--x--x--x--x--x--x--|
A:|-17-17-17-17-19-19-19-19-17-17-17-17-16-16-16-16-|
E:|-------------------------------------------------|

Gtr II

e:|---------------------------------|
B:|---------------------------------|
G:|-7-7-7-7-6-6-6-6-7-7-7-7-9-9-9-9-|
D:|-x-x-x-x-x-x-x-x-x-x-x-x-x-x-x-x-|
A:|-5-5-5-5-4-4-4-4-5-5-5-5-7-7-7-7-|
E:|---------------------------------|

e:|---------------------------------|
B:|---------------------------------|
G:|-7-7-7-7-9-9-9-9-7-7-7-7-6-6-6-6-|
D:|-x-x-x-x-x-x-x-x-x-x-x-x-x-x-x-x-|
A:|-5-5-5-5-7-7-7-7-5-5-5-5-4-4-4-4-|
E:|---------------------------------|

End on

Both Gtr's

e:|-----------|
B:|-----------|
G:|-7~~~---7/-|
D:|-7~~~---7/-|
A:|-5~~~---5/-|
E:|-----------|
Comments