My Chemical Romance - Give Em Hell Kid Chords & Tabs

 

Give Em Hell Kid Chords & Tabs

My Chemical Romance Chords & Tabs

Version: 1 Type: Tab 1 rating
1 star 2 stars 3 stars 4 stars 5 stars
comments

Give Em Hell Kid Tab

   
Artist:My chemical romance
Song:Give em hell kid

b:  bend
s:  slide to...
pm: palm mute
~:  keep on sounding
\:  slide down
>:  continues



Starts with bass only

Guitar 1:
e|-----------0-------------------0-------------------------------|
B|---------------0-------------------0---------------------------|
G|-------------------0-------------------0---5--5--5--8--8--8----|
D|---2~~-----------------2~~-----------------5--5--5--8--8--8----|
A|---2~~-----------------2~~-----------------3--3--3--6--6--6----|
E|---0~~-----------------0~~-------------------------------------|

Guitar 2:
e|-----------------------------------------------------------------|
B|--------------------------------------12---10-------10-----------|
G|---9b~-8b~-9b~-8b~-----9-12------9-12---------12-12----12--------|
D|----------------------------12----------------------------12\----|
A|-----------------------------------------------------------------|
E|-----------------------------------------------------------------|


Guitar 1:
e|-----------------------------------------------------------------------------------|
B|-----------------------------------------------------------------------------------|
G|-----------------------------------------------------------------------------------|
D|-2-2-2-2-9-9-9-9-10-10-10-10-7-7-7-7-2-2-2-2-9-9-9-9-10-10-10-10-13-13-13-13-------|
A|-2-2-2-2-9-9-9-9-10-10-10-10-7-7-7-7-2-2-2-2-9-9-9-9-10-10-10-10-13-13-13-13-------|
E|-0-0-0-0-7-7-7-7--8--8--8--8-5-5-5-5-0-0-0-0-7-7-7-7--8--8--8--8-11-11-11-11-------| X2

Guitar 2:
e|----------------------------------------------------------------------------------|
B|----------------------------------------------------------------------------------|
G|-9-9-9-9-----------------------------9--9-9-9--------------------------------------|
D|-9-9-9-9-9-9-9-9-10-10-10-10-7-7-7-7-9-9-9-9-9-9-9-9-10-10-10-10-13-13-13-13------|
A|-7-7-7-7-9-9-9-9-10-10-10-10-7-7-7-7-7-7-7-7-9-9-9-9-10-10-10-10-13-13-13-13------|
E|---------7-7-7-7--8--8--8--8-5-5-5-5---------7-7-7-7--8--8--8--8-11-11-11-11----| X2

-----Chorus---------------------------------------------------

Guitar 1 & 2:
e|-----------------------------------------------------------------------|
B|-----------------------------------------------------------------------|
G|---------------------------8-8-8-8----------7-7-7-7---------5-5-5-5----|
D|-5-5-5-5-4-4-4-4-2-2-2-2-8-8-8-8--5-5-5-5-7-7-7-7-2-2-2-2-5-5-5-5------|
A|-5-5-5-5-5-5-5-5-2-2-2-2-6-6-6-6--5-5-5-5-5-5-5-5-2-2-2-2-3-3-3-3------|
E|-3-3-3-3-2-2-2-2-0-0-0-0----------3-3-3-3---------0-0-0-0--------------|
-
-----PostChorus-----------------------

Guitar 1:
e|-----------0--------------------------------|
B|---------------0----------------------------|
G|-------------------0---5--5--5--8--8--8-----|
D|---2~~-----------------5--5--5--8--8--8-----|
A|---2~~-----------------3--3--3--6--6--6-----|
E|---0~~--------------------------------------|

Guitar 2:
e|------------------------------------------------|
B|------------------------------------------------|
G|---9b~-8b~-9b~--------11-11-11-11-11-11\--------|
D|------------------------------------------------|
A|------------------------------------------------|
E|------------------------------------------------|

Guitar 1:
e|-----------------------------------------------------------------------------------|
B|-----------------------------------------------------------------------------------|
G|-----------------------------------------------------------------------------------|
D|-2-2-2-2-9-9-9-9-10-10-10-10-7-7-7-7-2-2-2-2-9-9-9-9-10-10-10-10-13-13-13-13-------|
A|-2-2-2-2-9-9-9-9-10-10-10-10-7-7-7-7-2-2-2-2-9-9-9-9-10-10-10-10-13-13-13-13-------
E|-0-0-0-0-7-7-7-7--8--8--8--8-5-5-5-5-0-0-0-0-7-7-7-7--8--8--8--8-11-11-11-11-------| X2

Guitar 2:
e|----------------------------------------------------------------------------------|
B|----------------------------------------------------------------------------------|
G|-9-9-9-9-------------------------------9-9-9-9------------------------------------|
D|-9-9-9-9-9-9-9-9-10-10-10-10-7-7-7-7-9-9-9-9-9-9-9-9-10-10-10-10-13-13-13-13------|
A|-7-7-7-7-9-9-9-9-10-10-10-10-7-7-7-7-7-7-7-7-9-9-9-9-10-10-10-10-13-13-13-13------|
E|---------7-7-7-7--8--8--8--8-5-5-5-5--------7-7-7-7--8--8--8--8-11-11-11-11-------| X2

-----Chorus----------------------------------------------------

Guitar 1 & 2:
e|-----------------------------------------------------------------------|
B|-----------------------------------------------------------------------|
G|-------------------------8-8-8-8----------7-7-7-7---------5-5-5-5------|
D|-5-5-5-5-4-4-4-4-2-2-2-2-8-8-8-8--5-5-5-5-7-7-7-7-2-2-2-2-5-5-5-5------|
A|-5-5-5-5-5-5-5-5-2-2-2-2-6-6-6-6--5-5-5-5-5-5-5-5-2-2-2-2-3-3-3-3------|
E|-3-3-3-3-2-2-2-2-0-0-0-0----------3-3-3-3---------0-0-0-0--------------| X2

-----Bridge---------------------------------------------------
[ Tab from: http://www.guitartabs.cc/tabs/m/my_chemical_romance/give_em_hell_kid_tab.html ]
Guitar 1:
e|-------------------------------------------------------------------------|
B|-------------------------------------------------------------------------|
G|-5-5-5-5-5-5-5-5-7-7-7-7-7-7-7-7-4-4-4-4-4-4-4-4-------------7-7-7-7-----|
D|-5-5-5-5-5-5-5-5-7-7-7-7-7-7-7-7-4-4-4-4-4-4-4-4---2-2-2-2---7-7-7-7-----|
A|-3-3-3-3-3-3-3-3-5-5-5-5-5-5-5-5-2-2-2-2-2-2-2-2---2-2-2-2---5-5-5-5-----|
E|---------------------------------------------------0-0-0-0---------------| X2

Guitar 2:                            (1st time: A A   -   2nd time: A B)
e|-------------------------------------------------|----A----|----B------|
B|-------------------------------------------------|---------|-----------|
G|-5-5-5-5-5-5-5-5-7-7-7-7-9-9-7-7-7-7-7-7-7-7-7-7-|---------|-----------|
D|-5-5-5-5-5-5-5-5-x-x-x-x-x-x-x-x-5-5-5-5-4-4-4-4-|-5-4-5s7b|-5-4-5s9b--|
A|-3-3-3-3-3-3-3-3-5-5-5-5-7-7-5-5-----------------|---------|-----------|
E|-------------------------------------------------|---------|-----------| X2



Guitar 1:
e|--------------------------------------------------|
B|---------------------------/------pm------\-------|
G|-5555555577777777--FLANGER-5555555577777777-------|
D|-5555555577777777--EFFECT--5555555577777777-------|
A|-3333333355555555----------3333333355555555-------|
E|--------------------------------------------------|

Guitar 2:
e|-----------------------------------------------------|
B|-----------------------------------------------------|
G|-5555555577777777--10b~~~~~~~~~~~------10\-----------|
D|-5555555577777777------------------------------------|
A|-3333333355555555------------------------------------|
E|-----------------------------------------------------|

-----Chorus-(1:44)---------------------------------------------------

Guitar 1 & 2:
e|-----------------------------------------------------------------------|
B|-----------------------------------------------------------------------|
G|-------------------------8-8-8-8----------7-7-7-7---------5-5-5-5------|
D|-5-5-5-5-4-4-4-4-2-2-2-2-8-8-8-8--5-5-5-5-7-7-7-7-2-2-2-2-5-5-5-5------|
A|-5-5-5-5-5-5-5-5-2-2-2-2-6-6-6-6--5-5-5-5-5-5-5-5-2-2-2-2-3-3-3-3------|
E|-3-3-3-3-2-2-2-2-0-0-0-0----------3-3-3-3---------0-0-0-0--------------| X2

-----Ending---------------------------------------------------

Guitar 1:
e|--------------------------------------------------------------------------------------|
B|--------------------------------------------------------------------------------------|
G|------4444-5555-2222------4444-5555-2222------4444-5555-2222------4444-5555-8888------|
D|-2222-4444-5555-2222-2222-4444-5555-2222-2222-4444-5555-2222-2222-4444-5555-8888-2~---|
A|-2222-2222-3333-0000-2222-2222-3333-0000-2222-2222-3333-0000-2222-2222-3333-6666-2~---|
E|-0000----------------0000----------------0000----------------0000----------------0~---|

Guitar 2:
e|------------------------------------------->
B|------------------------------------------->
G|---------------------9999-9999-999999999--->
D|------------------------------------------->
A|------------------------------------------->
E|------------------------------------------->

>-------------------------------------------------------------------------------------------->
>-12-12-12-12-10-10-10-10-8-8-8-8---------12-12-12-12-10-10-10-10-8-8-8-8-10-10-10-10-------->
>---------------------------------9-9-9-9---------------------------------------------------->
>--------------------------------------------------------------------------------------------->
>--------------------------------------------------------------------------------------------->
>--------------------------------------------------------------------------------------------->

>------------------------------------------------------------------------------------------|
>-12-12-12-12-10-10-10-10-8-8-8-8-------------------------8-8-8-8-10-10-10-10--------------|
>---------------------------------9-9-9-9-7-7-7-7-9-9-9-9-----------------------9~~~-------|
>------------------------------------------------------------------------------------------|
>------------------------------------------------------------------------------------------|
>------------------------------------------------------------------------------------------|


Lyrics

Oh baby here comes the sound!

I took a train outta New Orleans
and they shot me full of ephedrine.
This is how we like to do it in the murder scene.
Can we settle up the score?

If you were here I'd never have a fear.
So go on live your life.
But I miss you more than I did yesterday.

You're beautiful

Well I'm a total wreck and almost every day.
Like the firing squad or the mess you made.
Well don't I look pretty walking down the street.
In the best *** dress I own?

If you were here I'd never have a fear.
So go on live your life.
But I miss you more than I did yesterday.
You're so far away.
So c'mon show me how.
'Cause I mean this more than words can ever say.

Some might say we are made from the sharpest things you say
We are young and we don't care.
Your dreams and your hopeless hair.
We never wanted it to be this way.
For all our lives.
Do you care at all?

If you were here I'd never have a fear.
So go on live your life.
But I miss you more than I did yesterday.
You're so far away.
So c'mon show me how.
'Cause I mean this more than words can ever say.

Won't you tell me?
Well, there's no way I'm kissing that guy.
Comments