My Chemical Romance - Ghost Of You Chords & Tabs

 

Ghost Of You Chords & Tabs

My Chemical Romance Chords & Tabs

Version: 2 Type: Tab 0 ratings
1 star 2 stars 3 stars 4 stars 5 stars
comments

Ghost Of You Tab

   
Song: The Ghost Of You
Band: My Chemical Romance
Album: Three Cheers For Sweet Revenge

Key:

*:- Palm mute
x:- String mute
~:- Let ring
/:- Slide
h:- Hammer-on
p:- Palm mute
<#>:- Natural harmonic

Gtr I: Ray Toro: Standard Tuning (e,B,G,D,A,e)
Gtr II: Frank Iero: Standard Tuning (e,B,G,D,A,e)

Intro:

Gtr I

e:|-------------------------------|
B:|-------------------------------|
G:|-7-------7-----6-------9-------|
D:|-7-------7-----7-------7-------| (x2)
A:|-------------------------------|
E:|---7-7-7---7-7---7-7-7---7-7-7-|

e:|-------------------------------|
B:|-------------------------------|
G:|-7-------7-----6-------9-------|
D:|-7-------7-----7-------7-------| 
A:|---7-7-7---7-7---7-7-7---7-7-7-|
E:|-------------------------------|

e:|------------------|
B:|-3-------3-----2~-|
G:|-2-------2-----2~-|
D:|------------------|
A:|------------------|
E:|---2-2-2---2-2----|

Gtr II

e:|--------------|
B:|-------7------|
G:|---7-------7~-| (x2)
D:|-9---9---9----|
A:|--------------|
E:|--------------|

e:|-------------------------|
B:|-------------------7-----|
G:|---7---7---7---7-------7-|
D:|-9---9---9---9---9---9---|
A:|-------------------------|
E:|-------------------------|

e:|-----------------|
B:|-12~-------------|
G:|------11~--------|
D:|-----------<7>~~-|
A:|-----------------|
E:|-----------------|

Verse I:

Gtr I repeats intro.

Gtr II

e:|---------------------------------------------------|
B:|---------------------------------------------------|
G:|---------------------------------------------------|
D:|-14h16-12h14-11h12-11/9~--14h16-12h14-11h12-12/14~-|
A:|---------------------------------------------------|
E:|---------------------------------------------------|

e:|----------------------------------------------------------|
B:|----------------------------------------------------------|
G:|-11-------12-11----14---------12/14-12-11-11h12p11--------|
D:|----14-12-------12----11/14~-----------------------12-11~-|
A:|----------------------------------------------------------|
E:|----------------------------------------------------------|

e:|-----------------------------------------------|
B:|-----------------------------------------------|
G:|-9h11---12---11---9~-9h11---12---11---9-9h11p9-|
D:|------9----9----9---------9----9----9----------|
A:|-----------------------------------------------|
E:|-----------------------------------------------|

e:|------------------------------------------|
B:|------------------------------------------|
G:|-12/14-12-11------12/14-12-11-11h12p11----|
D:|-------------12~-----------------------12-|
A:|------------------------------------------|
E:|------------------------------------------|

Pre Chorus:

Gtr I

e:|-----------------|
B:|-----------------|
G:|-----------------|
D:|-x-x-x-x-x-x-x-x-|
A:|-x-x-x-x-x-x-x-x-|
e:|-x-x-x-x-x-x-x-x-|

Gtr II

e:|-----------------|
B:|-----------------|
G:|-----------------|
D:|-----------------|
A:|-----------------|
E:|-//Pick Scrape\\-|

Chorus: 

Gtr I

e:|-----------------------------------------------------------------|
B:|-----------------------------------------------------------------|
G:|-6-6-6-6-6-6-6-6-7-7-7-7-7-7-7-7-6-6-6-6-6-6-6-6-7-7-7-7-7-7-7-7-|
D:|-5-5-5-5-5-5-5-5-5-5-5-5-5-5-5-5-7-7-7-7-7-7-7-7-7-7-7-7-7-7-7-7-|
A:|-5-5-5-5-5-5-5-5-5-5-5-5-5-5-5-5-x-x-x-x-x-x-x-x-x-x-x-x-x-x-x-x-|
e:|-3-3-3-3-3-3-3-3-3-3-3-3-3-3-3-3-5-5-5-5-5-5-5-5-5-5-5-5-5-5-5-5-|

e:|-----------------------------------------------------------------|
B:|-----------------------------------------------------------------|
G:|-6-6-6-6-6-6-6-6-7-7-7-7-7-7-x-9-6-6-6-6-6-6-6-6-7-7-7-7-7-7-x-6-|
D:|-4-4-4-4-4-4-4-4-4-4-4-4-4-4-x-x-7-7-7-7-7-7-7-7-7-7-7-7-7-7-x-7-|
A:|-x-x-x-x-x-x-x-x-x-x-x-x-x-x-x-7-x-x-x-x-x-x-x-x-x-x-x-x-x-x-x-x-|
E:|-7-7-7-7-7-7-7-7-7-7-7-7-7-7-x---5-5-5-5-5-5-5-5-5-5-5-5-5-5-x-5-|

e:|-----------------------------------------------------------------|
B:|-----------------------------------------------------------------|
G:|---------------------------------6-6-6-6-6-6-6-6-7-7-7-7-7-7-7-7-|
D:|-4-4-4-4-4-4-4-4-5-5-5-5-5-5-5-5-7-7-7-7-7-7-7-7-7-7-7-7-7-7-7-7-|
A:|-5-5-5-5-5-5-5-5-5-5-5-5-5-5-5-5-x-x-x-x-x-x-x-x-x-x-x-x-x-x-x-x-|
e:|-2-2-2-2-2-2-2-2-3-3-3-3-3-3-3-3-5-5-5-5-5-5-5-5-5-5-5-5-5-5-5-5-|

Gtr II

e:|--------------------------------------------------------------|
B:|--------------------------------------------------------------|
G:|-1212121212121212-141414141414/1616/121212121212/14/12/11~-9~-|
D:|-x-x-x-x-x-x-x-x--x-x-x-x-x-x--x-x--x-x-x-x-x-x--x--x--x---x--|
A:|-1010101010101010-121212121212/1414/101010101010/12/10/9~--7~-|
E:|--------------------------------------------------------------|

e:|----------------------------------|
B:|----------------------------------|
G:|-11/12/11-9/11--11/12/11-9/11-x-4-|
D:|-x--x--x--x-x---x--x--x--x-x--x-x-|
A:|-9/-10/9--7/9---9/-10/9--7/9--x-2-|
E:|------------------------------x---|

e:|-------------------------------|
B:|-------------------------------|
G:|-11/12/11-9/11--11/12/11/9-x-9-|
D:|-x--x--x--x-x---x--x--x--x-x-x-|
A:|-9/-10/9--7/9---9/-10/9-/7-x-7-|
E:|---------------------------x---|
[ Tab from: http://www.guitartabs.cc/tabs/m/my_chemical_romance/ghost_of_you_tab_ver_2.html ]
e:|------------------------------------------------------------------|
B:|------------------------------------------------------------------|
G:|-6-6-6-6-6-6-6-6-7-7-7-7-7-7-7-7-9-9-9-9-9-9-9-9-1111111111111111-|
D:|-x-x-x-x-x-x-x-x-x-x-x-x-x-x-x-x-x-x-x-x-x-x-x-x--x-x-x-x-x-x-x-x-|
A:|-4-4-4-4-4-4-4-4-5-5-5-5-5-5-5-5-7-7-7-7-7-7-7-7--9-9-9-9-9-9-9-9-|
E:|------------------------------------------------------------------|

Verse II:

Gtr I repeats Verse I

Gtr II

e:|---------------------------------------------------|
B:|---------------------------------------------------|
G:|-14-12-11-----------------14-12-11-----------------|
D:|----------12/161616161616----------12/161616161616-|
A:|---------------------------------------------------|
E:|---------------------------------------------------|

e:|-------------------------------------------|
B:|-------------------------------------------|
G:|-------------------------------------------|
D:|-12/14-12-11-------12/14-12-11-11h12p11----|
A:|-------------12-12----------------------12-|
E:|-------------------------------------------|

e:|-----------------------------------------------|
B:|-----------------------------------------------|
G:|-9h11---12---11---9~-9h11---12---11---9-9h11p9-|
D:|------9----9----9---------9----9----9----------|
A:|-----------------------------------------------|
E:|-----------------------------------------------|

e:|-------------------------------------------------------|
B:|-------------------------------------------------------|
G:|-11-------12-11----14---------12/14-12-11-11h12p11-----|
D:|----14-12-------12----11/14~-----------------------12~-|
A:|-------------------------------------------------------|
E:|-------------------------------------------------------|

Bridge:

Gtr I 

e:|------------------------------------|
B:|-----3---------3--------3---------3-|
G:|------------------------------------|
D:|-4--------4---------4--------4------|
A:|---2--------------4---4-------------| (x2)
E:|--------3---3--------------2---2----|

e:|-0-|
B:|-3-|
G:|-0-|
D:|-4-|
A:|-x-|
e:|-2-|

Gtr II (Comes in on Gtr I's second repeat)

e:|---------------7--------------------|
B:|-----7-------8---8---8-----8p7------|
G:|---7----7--9-------9-----9-----9-7~-|
D:|-9----9----------------7------------|
A:|------------------------------------|
E:|------------------------------------|

Solo:

Gtr I

e:|-----------------------------------------------------------------|
B:|-----------------------------------------------------------------|
G:|-4-4-4-4-4-4-4-4-----------------6-6-6-6-6-6-6-6-----------------| (x2)
D:|-4-4-4-4-4-4-4-4-5-5-5-5-5-5-5-5-6-6-6-6-6-6-6-6-4-4-4-4-4-4-4-4-| 
A:|-2-2-2-2-2-2-2-2-5-5-5-5-5-5-5-5-4-4-4-4-4-4-4-4-4-4-4-4-4-4-4-4-|
E:|-----------------3-3-3-3-3-3-3-3-----------------2-2-2-2-2-2-2-2-|

Gtr II

e:|---------------------------------------------------------|
B:|---------7-----------8-----------5-----------------------|
G:|---7-6-7---7---7-6-7---7---7-6-7---7~-7/9-7-6~-6/7-6-----|
D:|-9-----------9-----------9----------------------------7~-|
A:|---------------------------------------------------------|	
E:|---------------------------------------------------------|

e:|--------------------------------------------|
B:|---------7------------8-----------5---------|
G:|---7-6-7----7---7-6-7---7---7-6-7---7~-7/9~-|
D:|-9------------9-----------9-----------------|
A:|--------------------------------------------|	
E:|--------------------------------------------|

After Solo:

Gtr I

e:|--------------------------------------------------------------------|
B:|--------------------------------------------------------------------|
G:|-7-7-7-7/9-9/1111/12121212/11111111/9-9-9-9-9-9-9-9-----------------|
D:|-x-x-x-x-x-x--x-x--x-x-x-x--x-x-x-x-x-x-x-x-x-x-x-x-9-9-9-9-7-7-7-7-|
A:|-5-5-5-5/7-7/-9-9/10101010/-9-9-9-9/7-7-7-7-7-7-7-7-x-x-x-x-x-x-x-x-|
E:|----------------------------------------------------7-7-7-7-5-5-5-5-|

e:|--------------------------------------------------------------------|
B:|--------------------------------------------------------------------|
G:|-7-7-7-7/9-9/1111/12121212/11111111/9-9-9-9-9-9-9-9-----------------|
D:|-x-x-x-x-x-x--x-x--x-x-x-x--x-x-x-x-x-x-x-x-x-x-x-x-9-9-9-9-7-7-7-7-|
A:|-5-5-5-5/7-7/-9-9/10101010/-9-9-9-9/7-7-7-7-7-7-7-7-9-9-9-9-7-7-7-7-|
E:|----------------------------------------------------7-7-7-7-5-5-5-5-|
PM                                                     * * * * * * * *

Gtr II

e:|-----------------------------------------------------------------|
B:|-----------------------------------------------------------------|
G:|-4-4-4-4/6-6/7-7/9-9-9-9/7-7-7-7/6-6-6-6-6-6-6-6/4-4-4-4-2-2-2-2-|
D:|-x-x-x-x-x-x-x-x-x-x-x-x-x-x-x-x-x-x-x-x-x-x-x-x-x-x-x-x-x-x-x-x-|
A:|-2-2-2-2/4-4/5-5/7-7-7-7/5-5-5-5/4-4-4-4-4-4-4-4/2-2-2-2-0-0-0-0-|
E:|-----------------------------------------------------------------|

e:|-----------------------------------------------------------------|
B:|-----------------------------------------------------------------|
G:|-4-4-4-4/6-6/7-7/9-9-9-9/7-7-7-7/6-6-6-6-6-6-6-6-4-4-4-4-2-2-2-2-|
D:|-x-x-x-x-x-x-x-x-x-x-x-x-x-x-x-x-x-x-x-x-x-x-x-x-4-4-4-4-2-2-2-2-|
A:|-2-2-2-2/4-4/5-5/7-7-7-7/5-5-5-5/4-4-4-4-4-4-4-4-2-2-2-2-0-0-0-0-|
E:|-----------------------------------------------------------------|
PM                                                  * * * * * * * *

Repeat Chorus
Comments