My Chemical Romance - Early Sunsets Over Monroeville Chords & Tabs

 

Early Sunsets Over Monroeville Chords & Tabs

My Chemical Romance Chords & Tabs

Version: 4 Type: Tab 0 ratings
1 star 2 stars 3 stars 4 stars 5 stars
comments

Early Sunsets Over Monroeville Tab

   
My Chemical Romance
Early Sunsets Over Monroeville
I Brought You My Bullets, You Brought Me Your Love

ok ive searched ALOT for this song... on mx... ultimate guitar.. etc.
but no one tabbed this song the least bit correctly.. so i decided to
tab it myself... ok i only figured out the lead guitar part.. but i
will try to figure out the rhythm later on... but this is the cool
part anyway

Standard tuning

e-----------------------|
b-----------------------|
g-9-7---9-7--9--9/11--9-|
d-----------------------|
a-----------------------|
e-----------------------|

e--------------------------|
b--------------------------|
g-7---9-7---9-7--9--9/11-9-|
d--------------------------|
a--------------------------|
e--------------------------|


e---------------------|
b-------10------------|
g-11-12----7-----7-10-|
d---------------------|  repeat once
a---------------------|
e---------------------|

e-------------------|
b-------------------|
g-777777777777777777
d-------------------| repeat once
a-------------------|
e-------------------|

e---------------------------------------|
b---------------------------------------|
g-6-77-6-77-6-77-6-77-6-77-6-7-9-9/11-9-|
d---------------------------------------|
a---------------------------------------|
e---------------------------------------|

e-----5---------5---------5----5---------------|
b----------------------------------------------|
g-6-7---7---6-7---7---6-7---6-7------<12>------|
d--------------------------------<7>------<16--|
a----------------------------------------------|
e----------------------------------------------|

e---------------------------------|
b----10-----------10-----------10-|
g--7--------11-12----7------7-----|
d---------------------------------|
a---------------------------------|
e---------------------------------|
[ Tab from: http://www.guitartabs.cc/tabs/m/my_chemical_romance/early_sunsets_over_monroeville_tab_ver_4.html ]
e-------------------
b-777777777777777777
g-------------------|
d-------------------| repeat once
a-------------------|
e-------------------|

e---------------------------------------|
b---------------------------------------|
g-6-77-6-77-6-77-6-77-6-77-6-7-9-9/11-9-|
d---------------------------------------| repeat once
a---------------------------------------|
e---------------------------------------|

e-----5----------5-----------5----5------5---|
b--------------------------------------------|
g-6-7---7-----6-7---7----6-7---6-7---6-7---7-|
d--------------------------------------------|
a--------------------------------------------|
e--------------------------------------------|

e-----5-----------5------------5------5--5/7--5-------------|
b------------------------------------------------8-7-8-7--5-|
g-6-7---7-----6-7---7-----6-7----6-7------------------------|
d-----------------------------------------------------------|
a-----------------------------------------------------------|
e-----------------------------------------------------------|

e---------------------------------|
b----------------5-7-8-7-5--------|
g-4-6-7-9-7-6--7------------------|
d------------------------- repeat-| 25 times
a---------------------------------|
e---------------------------------|

*And now... play around with these patterns (i wasnt sure which goes where)

e---------------|
b---------------|
g-6-77-6-77-----|
d-----------9-7-|
a---------------|
e---------------|

e--------------|
b------7-------|
g-6-77---7-6-7-|
d--------------|
a--------------|
e--------------|

e----------------------|
b-----------5----7---5-|
g-6-77-6-77---77--77---|
d----------------------|
a----------------------|
e----------------------|


and now for the ending


e---------|
b---------|
g-4--6/-7-|
d---------|
a---------|

well yeah... thats the lead part.. im gonna work on the part with
the star before some more... but heres the rest.. this tab is perfect
and so much better than the others... so yeah enjoy..

p.s. this song rocks so much...
Comments