My Chemical Romance - Early Sunsets Over Monroeville Chords & Tabs

 

Early Sunsets Over Monroeville Chords & Tabs

My Chemical Romance Chords & Tabs

Version: 2 Type: Tab 0 ratings
1 star 2 stars 3 stars 4 stars 5 stars
comments

Early Sunsets Over Monroeville Tab

e----------------------------------------------------------|
B-----7--8/9-----------------------------------------------|
G---0---9---8-5/6/3----------------------------------------|
D----------------------------------------------------------|
A--1-0---3--6--2-7--4-7--4-8-------------------------------|
E----------------------------------------------------------|
[ Tab from: http://www.guitartabs.cc/tabs/m/my_chemical_romance/early_sunsets_over_monroeville_tab_ver_2.html ]
e----------------------------------------------------------|
B-----7--8/9-----------------------------------------------|
G---0---9---8-5/6/3----------------------------------------|
D----------------------------------------------------------|
A--1-0---3--6--2-7--4-7--4-8-------------------------------|
E----------------------------------------------------------|
[ Tab from: http://www.guitartabs.cc/tabs/m/my_chemical_romance/early_sunsets_over_monroeville_tab_ver_2.html ]
e----------------------------------------------------------|
B-----7--8/9-----------------------------------------------|
G---0---9---8-5/6/3----------------------------------------|
D----------------------------------------------------------|
A--1-0---3--6--2-7--4-7--4-8-------------------------------|
E----------------------------------------------------------|
Comments