My Chemical Romance - All I Want For Christmas Is You Chords & Tabs

 

All I Want For Christmas Is You Chords & Tabs

My Chemical Romance Chords & Tabs

Version: 1 Type: Bass Tab

All I Want For Christmas Is You Bass Tab

All i want for christmas is you
My chemical romance 

Standard bass tunning

I have improved the tab and added lyrics so you can work out
were all the parts go. Please rate this tab and leave comments, it is
greatly appreciated. Any way have fun.

The intro is on piano.

Verse 1
|------------------------|------------------------|------------|
|------------------------|------------------------|------------|
|------------------------|----------------0--1--2-|-3--3--3--3-|
|-3--3--3--3--3--3--3--3-|-3--3--3--3--3----------|------------|

|------------|------------------------|------------------------|
|------------|------------------------|------------------------|
|-3--3--3--3-|-6--6--6--6--6--6--6--6-|------------------------|
|------------|------------------------|-3--3--3--3--3--3--3--3-|

|------------------------|------------------------|------------|
|------------------------|------------------------|------------|
|----------------0--1--2-|-3--3--3--3--3--3--3--5-|-6--6--6--6-|
|-3--3--3--3--3----------|------------------------|------------|

|------------|
|------------|
|-6--6--6--6-|
|------------|

Chorus 1
|--------------------------|-------------------------|-------------|
|--------------------------|-------------------------|-------------|
|------------------2-2-2-2-|-7-7-7-7-7-7-7-7-6-6-6-6-|-5-5-5-5-5-5-|
|-3-3-3-3--3-3-3-3---------|-------------------------|-------------|

|--------------------------------------|-------------------------|
|--------------------------------------|-------------------------|
|-7-7-7-7-7-7---------------5-5-5-5-5-5|-------------7-7-7-7-7-7-|
|--------------5-5-5-5-5-5-------------|-3-3-3-3-3-3-------------|

|-----------------------------|
|-----------------------------|
|---0-0-0-0-0-0---5-5-5-5-5-5-|
|-----------------------------|

Verse  2 same as before

Chorus 2 same as before


Interlude
|------------------------|------------------------|------------|
|------------------------|------------------------|------------|
|-2--2--2--2--2--0-------|------------------------|-2--2--2--2-|
|-------------------3--2-|-0--0--0--0--0--0--0--0-|------------|

|------------|------------------------|------------------------|
|------------|------------------------|------------------------|
|-2--2--2--2-|------------------------|-6--6--6--6--6--6--6--6-|
|------------|-0--0--0--0--0--0--0--0-|------------------------|
[ Tab from: http://www.guitartabs.cc/tabs/m/my_chemical_romance/all_i_want_for_christmas_is_you_btab.html ]
|-------------------------------------------------|------------|
|-------------------------------------------------|------------|
|-5--5--5--5--7--7--7--7--------------------------|-5--5--5--5-|
|--------------------------5--5--5--5--5--5--5--5-|------------|

|-------------|
|-------------|
|-5--5--5--5--|
|-------------|

Bass solo bit (Palm mute this)
|------------------------|------------------------|------------|
|------------------------|------------------------|------------|
|------------------------|------------------------|-3--3--3--3-|
|-3--3--3--3--3--3--3--3-|-3--3--3--3--3--3--3--3-|------------|

|------------|------------------------|
|------------|------------------------|
|-3--3--3--3-|-6--6--6--6--6--6--6--6-|
|------------|------------------------|

Chorus 3 same as before


Outro
|------------------------|------------------------|
|------------------------|------------------------|
|------------------------|-------------5--5--5--5-|
|-3--3--3--3--0--0--0--0-|-5--5--5--5-------------|

(Repeat Till Fade Out)

Lyrics with where the bass parts fit in

Piano intro

I don't want a lot for Christmas 
There's just one thing I need 
I don't care about the presents 
Underneath the Christmas tree 
I just want you for my own 
More than you could ever know 
Make my wish come true 
All I want for Christmas is... 
You 

Verse 1

I don't want a lot for Christmas 
There's just one thing I need 
I don't care about the presents 
Underneath the Christmas tree 
I don't need to hang my stocking 
There upon the fireplace 
Santa Claus won't make me happy 
With a toy on Christmas day


Chorus 1
 
I just want you for my own 
More than you could ever know 
Make my wish come true 
All I want for Christmas is you 
You baby 

Verse 2

I won't ask for much this Christmas 
I don't even wish for snow 
I'm just gonna keep on waiting 
Underneath the mistletoe 
I won't make a list and send it 
To the North Pole for Saint Nick 
I won't even stay awake to 
Hear those magic reindeers click 

Chorus 2

'Cause I just want you here tonight 
Holding on to me so tight 
What more can I do 
Baby all I want for Christmas is you 
Ooh baby 

Interlude

All the lights are shining 
So brightly everywhere 
And the sound of children's 
Laughter fills the air 
And everyone is singing 
I hear those sleigh bells ringing 
Santa won't you bring me the one I really need 
Won't you please bring my baby to me... 

Bass solo bit

Oh I don't want a lot for Christmas 
This is all I'm asking for 
I just want to see my baby 
Standing right outside my door

Chorus 3
 
Oh I just want you for my own 
More than you could ever know 
Make my wish come true 
Baby all I want for Christmas is... 
You 

Outro
All I want for Christmas is you... baby (repeat and fade) 

by mcr14