My American Heart - Dont Sleep Chords & Tabs

 

Dont Sleep Chords & Tabs

My American Heart Chords & Tabs

Version: 1 Type: Tab 0 ratings
1 star 2 stars 3 stars 4 stars 5 stars
comments

Dont Sleep Tab

-------------------------------------------------------------------------------
			     Don't Sleep-  My American Heart
-------------------------------------------------------------------------------
Tabbed by:Michael Timog


Tuning:Drop D (Demo) or half step then drop D( Meaning in makeup)
Just for Eddie cause he cant do it himself lol
[ Tab from: http://www.guitartabs.cc/tabs/m/my_american_heart/dont_sleep_tab.html ]
e|----------------------------------------------------------------|
B|----------------------------------------------------------------|
G|----------------------------------------------------------------|
D|0-2--44-xxxxx-4-77-4----44 xxxxx-4-777-444-00----7----6----6-4--|
A|0-2--44 77777-4-xx-4-77-44 77777-4-xxx-444-00-00-5-00-5-00-5-5--|
D|0-2--44-xxxxx 4-xx-4----44 xxxxx-4-xxx-444-00-00---00---00------|
                                                ^    ^    ^ Palm Mute
e|---------------------------------------------------------------------------|
B|---------------------------------------------------------------------------|
G|---------------------------------------------------------------------------|
D|0----7----xxxx-------------------------------------------------------------|
A|0-00-5-00-xxxx-------------------------------------------------------------|
D|0-00---00-xxxx-------------------------------------------------------------|
    ^    ^Palm Mute

I'll try and tab the rest later.
Comments