Mxpx - Wrecking Hotel Rooms Chords & Tabs

 

Wrecking Hotel Rooms Chords & Tabs

Mxpx Chords & Tabs

Version: 2 Type: Tab 0 ratings
1 star 2 stars 3 stars 4 stars 5 stars
comments

Wrecking Hotel Rooms Tab

Artist:MxPx
Album:Panic
Song:Wrecking Hotel Rooms
Tabbed by: Jake K

B|----------------------------------------------|
G|----------------------------------------------|
D|---77744554-44455444-44422444-44422000--------|
A|---55555555-00000000-22222222-xxxxxxxx--------| 
E|------------------------------33333333--------|
 Intro^                2x
  
e|---2--0-----3-----------|-----------------------------------------|
B|---3--2-----3-----------|-----------------------------------------|
G|---2--2--2--0-----------|-----------------------------------------|
D|---0--2--x--0---After 2x|-----4--4--5--5--2---2---0----0----0-----|
A|------0--2--2-----------|---00-00-00-00---------------------------| 
E|------------3-----------|---------------00-022-233--333--333--33--|
 Verse^  2x  2 <---Can be played as---> (3)
             x  Whatever sounds better. (4)
             2                          (4)               
                                        (2)

e|----------------------------------------------|             e|---2--0-----3---|
B|----------------------------------------------|Or strum the B|---3--2-----3---|
G|----------------------------------------------|chords from  G|---2--2--2--0---|
D|---77744554-44455444-44422444-44422000--------|the verse.   D|---0--2--x--0---|
A|---55555555-00000000-22222222-xxxxxxxx--------|             A|------0--2--2---|
E|------------------------------33333333--------|             E|------------3---|
 Chorus^             2x                                                2x
[ Tab from: http://www.guitartabs.cc/tabs/m/mxpx/wrecking_hotel_rooms_tab_ver_2.html ]
e|---------------------------|
B|---------------------------|
G|---77----------------------|
D|---77-454----99----77------|
A|---55----757-99-57-77-45---| 
E|-------------77----55------|
 Bridge^    2x

e|---------------------------------------------------------------------|
B|---------------------------------------------------------------------|
G|---------------------------------------------------------------------|
D|---222-444-55555-222-444-55555-222-444-55555-7777777777777777777-----|
A|---222-444-55555-222-444-55555-222-444-55555-7777777777777777777-----| 
E|---000-222-33333-000-222-33333-000-222-33333-5555555555555555555-----|
 Guitar 1 with solo

e|---------------------------------------------------------------------|
B|--------------------------77--------------------------10----8---7----|
G|---7-----7h9-7h9-7-----7h9--9p7--7-9-11-12-12h14-12-11--11-9-9-7-9p7-|
D|----979-9---9-----979-9---------4-7-9--9-----------------------------|
A|---------------------------------------------------------------------| 
E|---------------------------------------------------------------------|
 Guitar 2 Solo                              ^             2x          ^

e|----------------------------------------------|
B|----------------------------------------------|
G|----------------------------------------------|
D|---77744554-44455444-44422444-44422000--------|
A|---55555555-00000000-22222222-xxxxxxxx--------| 
E|------------------------------33333333--------|
 Chorus till end, end on D.

Email: jmk87@ignmail.com
Comments