Mxpx - Wrecking Hotel Rooms Chords & Tabs

 

Wrecking Hotel Rooms Chords & Tabs

Mxpx Chords & Tabs

Version: 1 Type: Bass Tab

Wrecking Hotel Rooms Bass Tab

   
Intro: 2x
G|---------------------------------|
D|00000000777777779999999955555555-|
A|---------------------------------|
E|---------------------------------|

Verse: 3x
G|---------------------------------|
D|0-------7-------9-------5--------|
A|---------------------------------|
E|---------------------------------|

Chorus: 2x
G|---------------------------------|
D|00000000777777779999999955555555-|
A|---------------------------------|
E|---------------------------------|
"I'll be there in your dreams..."
G|----------------|
D|5-5-5-5-5-5-5-5-|
A|----------------|
E|----------------|

Intro: 1x
Verse:3x
Chorus:2x
2nd Part of Chorus
[ Tab from: http://www.guitartabs.cc/tabs/m/mxpx/wrecking_hotel_rooms_btab.html ]
Bridge:
G|---------------------------------|
D|00000000777777779999999955555555-|
A|---------------------------------|
E|---------------------------------|

G|--------------------------|
D|00-------55---00-------55-|
A|------00-----------00-----|
E|--------------------------|

G|---------------------------------|
D|000000005555555550000000099999999|
A|---------------------------------|
E|---------------------------------|

G|---------------------------------|
D|0000000000000000-----------------|
A|----------------00000000000000000|
E|---------------------------------|

G|-----------------|
D|-----------------|
A|00000000000000000|
E|-----------------|

Chorus: 2x

Let Ring:
G|-----------------|
D|-----------------|
A|0----------------|
E|-----------------|
Chorus:4x
Ending (let ring):
G|-----------------|
D|0----------------|
A|-----------------|
E|-----------------|