Mxpx - Without You Chords & Tabs

 

Without You Chords & Tabs

Mxpx Chords & Tabs

Version: 2 Type: Bass Tab 0 ratings
1 star 2 stars 3 stars 4 stars 5 stars
comments

Without You Bass Tab

Band:MXPX
Song:Without You
Album:The Ever Passing Moment
Tabbed By:Blake
Email:Skater_Punk_Blake@Hotmail.com

*= 16x

Intro\Outro
E:-----------
A:-3---------
D:-------5---
G:---5-4---4-

Riff#1
E:-3*-2*-------------------------------------
A:-------3-3-333-5-55-5555-3-3-333-5-55-5555-
D:-------------------------------------------
G:-------------------------------------------

Riff#2
E:-3----2----0-------------------
A:----------------3-----33333333-
D:-------------------------------
G:-------------------------------
[ Tab from: http://www.guitartabs.cc/tabs/m/mxpx/without_you_btab_ver_2.html ]
Riff#3
E:-3*-2*-0*------------------
A:----------33333333-55-55-5-
D:---------------------------
G:---------------------------

Riff#4
E:-3----2----0----33---33---33---33---
A:-------------------3----3----3----3-
D:------------------------------------
G:------------------------------------

Riff#5
E:-3----2----0----33---33--------
A:--------------------3----3\2-0-
D:-------------------------------
G:-------------------------------

Order
Intro
Riff#1 2x
Riff#2
Riff#1 2x
Riff#2
Riff#3 2x
Riff#4 2X
Riff#5
Riff#3 2x
Outro
Comments