Mxpx - Unsaid Chords & Tabs

 

Unsaid Chords & Tabs

Mxpx Chords & Tabs

Version: 1 Type: Tab 0 ratings
1 star 2 stars 3 stars 4 stars 5 stars
comments

Unsaid Tab

Song: Unsaid
Artist: MxPx
Album: Everpassing Moment
Tabbed by: Christian / silent_warrior_@hotmail.com

PM - Palm mute
x - Mute string
^ - Bend then release


Tuning: Standard (EADGBE)


Intro
|----------------------------------------------------|
|----------------------------------------------------|
|------7-7-7---------7-7-7---------7-7-7-------7-7-7-| x2
|-7-7--7-7-7--7-7-7--7-7-7--7-7-7--7-7-7--2-2--7-7-7-|
|-7-7--5-5-5--7-7-7--5-5-5--7-7-7--5-5-5--2-2--5-5-5-|
|-5-5---------5-5-5---------5-5-5---------0-0--------|


Verse
|-----------------------------------------------------------------------------|
|-----------------------------------------------------------------------------|
|--------------------------7-7-7-7-7-7--9-9-9-9-9-9-------7-7-7---------7-7-7-| x2
|-7---7--7--7--8--7--7--7--7-7-7-7-7-7--9-9-9-9-9-9--7-7--7-7-7--7-7-7--7-7-7-|
|-7---7--7--7--7--7--7--7--5-5-5-5-5-5--7-7-7-7-7-7--7-7--5-5-5--7-7-7--5-5-5-|
|-5---5--5--5--5--5--5--5----------------------------5-5---------5-5-5--------|


Fill
|------------------------------------------------------------|
|------------------------------------------------------------|
|-----------------------------------9-9-9-9-9-9-9-9----------| x1
|-7-7-7-7-7-7-7-7--9-9-9-9-9-9-9-9--9-9-9-9-9-9-9-9--2--2--2-|
|-7-7-7-7-7-7-7-7--9-9-9-9-9-9-9-9--7-7-7-7-7-7-7-7--2--2--2-|
|-5-5-5-5-5-5-5-5--7-7-7-7-7-7-7-7-------------------0--0--0-|


Chorus
|--------------------------------------------------------------------------------------|
|--------------------------------------------------------------------------------------|
|------------------9-9-9-9-9-9-9-9--7-7-7-7-7-7-7-7--9-9-9-9-9-9--10-10-10-10----------| x1
|-7-7-7-7-7-7-7-7--9-9-9-9-9-9-9-9--7-7-7-7-7-7-7-7--9-9-9-9-9-9---9--9--9--9--x-x-x-x-|
|-7-7-7-7-7-7-7-7--7-7-7-7-7-7-7-7--5-5-5-5-5-5-5-5--7-7-7-7-7-7---7--7--7--7--x-x-x-x-|
|-5-5-5-5-5-5-5-5--------------------------------------------------------------x-x-x-x-|


|----------------------------------------------------|
|----------------------------------------------------|
|------7-7-7---------7-7-7---------7-7-7-------7-7-7-| x1
|-7-7--7-7-7--7-7-7--7-7-7--7-7-7--7-7-7--2-2--7-7-7-|
|-7-7--5-5-5--7-7-7--5-5-5--7-7-7--5-5-5--2-2--5-5-5-|
|-5-5---------5-5-5---------5-5-5---------0-0--------|


Verse
|-----------------------------------------------------------------------------|
|-----------------------------------------------------------------------------|
|--------------------------7-7-7-7-7-7--9-9-9-9-9-9-------7-7-7---------7-7-7-| x2
|-7---7--7--7--8--7--7--7--7-7-7-7-7-7--9-9-9-9-9-9--7-7--7-7-7--7-7-7--7-7-7-|
|-7---7--7--7--7--7--7--7--5-5-5-5-5-5--7-7-7-7-7-7--7-7--5-5-5--7-7-7--5-5-5-|
|-5---5--5--5--5--5--5--5----------------------------5-5---------5-5-5--------|


|------------------------------------------------------------|
|------------------------------------------------------------|
|-----------------------------------9-9-9-9-9-9-9-9----------| x1
|-7-7-7-7-7-7-7-7--9-9-9-9-9-9-9-9--9-9-9-9-9-9-9-9--2--2--2-|
|-7-7-7-7-7-7-7-7--9-9-9-9-9-9-9-9--7-7-7-7-7-7-7-7--2--2--2-|
|-5-5-5-5-5-5-5-5--7-7-7-7-7-7-7-7-------------------0--0--0-|
PM- - - - - - - -  - - - - - - - -  - - - - - - - -


Chorus
|--------------------------------------------------------------------------------------|
|--------------------------------------------------------------------------------------|
|------------------9-9-9-9-9-9-9-9--7-7-7-7-7-7-7-7--9-9-9-9-9-9--10-10-10-10----------| x1
|-7-7-7-7-7-7-7-7--9-9-9-9-9-9-9-9--7-7-7-7-7-7-7-7--9-9-9-9-9-9---9--9--9--9--x-x-x-x-|
|-7-7-7-7-7-7-7-7--7-7-7-7-7-7-7-7--5-5-5-5-5-5-5-5--7-7-7-7-7-7---7--7--7--7--x-x-x-x-|
|-5-5-5-5-5-5-5-5--------------------------------------------------------------x-x-x-x-|

[ Tab from: http://www.guitartabs.cc/tabs/m/mxpx/unsaid_tab.html ]
|--------------------------------------------------------------------|
|--------------------------------------------------------------------|
|------------------9-9-9-9-9-9-9-9--7-7-7-7-7-7-7-7--9-9-9-9-9-9--10-| x1
|-7-7-7-7-7-7-7-7--9-9-9-9-9-9-9-9--7-7-7-7-7-7-7-7--9-9-9-9-9-9---9-|
|-7-7-7-7-7-7-7-7--7-7-7-7-7-7-7-7--5-5-5-5-5-5-5-5--7-7-7-7-7-7---7-|
|-5-5-5-5-5-5-5-5----------------------------------------------------|


Bridge
|---------------------------------------------------------------------------------------|
|---------------------------------------------------------------------------------------|
|--------10-------8--8-8-8--8--8-8-8---9---8------------------------4---------4-4-4-4-4-| x1
|-7---4---9---4---7--7-7-7--7--7-7-7---9---7---4---7--7--4-4-4-4-4--4--2-2-2--4-4-4-4-4-|
|-7---4---7---4---5--5-5-5--5--5-5-5---7---5---4---7--6--4-4-4-4-4--2--2-2-2--2-2-2-2-2-|
|-5---2-------2--------------------------------2---5--4--2-2-2-2-2-----0-0-0------------|


Guitar 1
|--------------------|
|--------------------|
|-6-6-6-6^--6-6-6-6^-| x2
|--------------------|
|--------------------|
|--------------------|


Guitar 2
|---------------------------------------------------------------------------------------------------|
|---------------------------------------------------------------------------------------------------|
|----------------------9-9-9-9-9-9-9-9-9-9-----------------------4-4-4-4--6-6-6-6--7-7-7-7--9-9-9-9-| x1
|-7-7-7-7-7-7-7-7-7-7--9-9-9-9-9-9-9-9-9-9--7-7-7-7-7-7-7-7-7-7--4-4-4-4--6-6-6-6--7-7-7-7--9-9-9-9-|
|-7-7-7-7-7-7-7-7-7-7--7-7-7-7-7-7-7-7-7-7--7-7-7-7-7-7-7-7-7-7--2-2-2-2--4-4-4-4--5-5-5-5--7-7-7-7-|
|-5-5-5-5-5-5-5-5-5-5-----------------------5-5-5-5-5-5-5-5-5-5-------------------------------------|


Chorus
|--------------------------------------------------------------------------------------|
|--------------------------------------------------------------------------------------|
|------------------9-9-9-9-9-9-9-9--7-7-7-7-7-7-7-7--9-9-9-9-9-9--10-10-10-10----------| x1
|-7-7-7-7-7-7-7-7--9-9-9-9-9-9-9-9--7-7-7-7-7-7-7-7--9-9-9-9-9-9---9--9--9--9--x-x-x-x-|
|-7-7-7-7-7-7-7-7--7-7-7-7-7-7-7-7--5-5-5-5-5-5-5-5--7-7-7-7-7-7---7--7--7--7--x-x-x-x-|
|-5-5-5-5-5-5-5-5--------------------------------------------------------------x-x-x-x-|


|-----------------------------------------------------------------------------------------|
|-----------------------------------------------------------------------------------------|
|------------------9-9-9-9-9-9-9-9--7-7-7-7-7-7-7-7--9-9-9-9-9-9--10-10-10-10-10-10-10-10-| x1
|-7-7-7-7-7-7-7-7--9-9-9-9-9-9-9-9--7-7-7-7-7-7-7-7--9-9-9-9-9-9---9--9--9--9--9--9--9--9-|
|-7-7-7-7-7-7-7-7--7-7-7-7-7-7-7-7--5-5-5-5-5-5-5-5--7-7-7-7-7-7---7--7--7--7--7--7--7--7-|
|-5-5-5-5-5-5-5-5-------------------------------------------------------------------------|


Outro - Guitar 1
|--------------------|
|--------------------|
|-6-6-6-6^--6-6-6-6^-| x4
|--------------------|
|--------------------|
|--------------------|


Outro - Guitar 2
|---------------------------------------------------------------------------------------------------------|
|---------------------------------------------------------------------------------------------------------|
|----------------------9-9-9-9-9-9-9-9-9-9-----------------------9-9-9-9-9-9-9-9-9-9----------------------| x1
|-7-7-7-7-7-7-7-7-7-7--9-9-9-9-9-9-9-9-9-9--7-7-7-7-7-7-7-7-7-7--9-9-9-9-9-9-9-9-9-9--7-7-7-7-7-7-7-7-7-7-|
|-7-7-7-7-7-7-7-7-7-7--7-7-7-7-7-7-7-7-7-7--7-7-7-7-7-7-7-7-7-7--7-7-7-7-7-7-7-7-7-7--7-7-7-7-7-7-7-7-7-7-|
|-5-5-5-5-5-5-5-5-5-5-----------------------5-5-5-5-5-5-5-5-5-5-----------------------5-5-5-5-5-5-5-5-5-5-|


|------------------------------------------------------------------------------|      |-----|
|------------------------------------------------------------------------------|      |-----|
|-9-9-9-9-9-9-9-9-9-9-----------------------4-4-4-4--6-6-6-6--7-7-7-7--9-9-9-9-| x1   |-----| x1 (last note)
|-9-9-9-9-9-9-9-9-9-9--7-7-7-7-7-7-7-7-7-7--4-4-4-4--6-6-6-6--7-7-7-7--9-9-9-9-|      |--7--|
|-7-7-7-7-7-7-7-7-7-7--7-7-7-7-7-7-7-7-7-7--2-2-2-2--4-4-4-4--5-5-5-5--7-7-7-7-|      |--7--|
|----------------------5-5-5-5-5-5-5-5-5-5-------------------------------------|      |--5--|
Comments