Mxpx - Unsaid Chords & Tabs

 

Unsaid Chords & Tabs

Mxpx Chords & Tabs

Version: 2 Type: Bass Tab 0 ratings
1 star 2 stars 3 stars 4 stars 5 stars
comments

Unsaid Bass Tab

Artist:MxPx
Song:Unsaid
Album:The Ever Passing Moment
Tabbed By:Dan the Man (Lamar148@aol.com)

()=varient way to play  >=play many times  ~~~=let ring
Intro
G:-------------------------------------
D:-------------------------------------
A:-(00)--555-----555-----555------555--
E:--55-------555-----555-----000-------

Verse1
G:----------------------
D:----------------------
A:-------------------5>-
E:-5>------------7>-----

PreChorus "I was thinking just the other day...."
G:------------------
D:------------------
A:-4>-5>-7>---------
E:-----------0-0-0--

Chorus
G:--------------------
D:--------------------
A:------4>---------88-
E:-5>-------7>--5>----
[ Tab from: http://www.guitartabs.cc/tabs/m/mxpx/unsaid_btab_ver_2.html ]
Bridge
G:--------------------------------------------------------------------
D:--------------------------------------------------------------------
A:-8--------2-----------------5------------------------22----------45-
E:----5--2-----0--5-55--5-55-----7--0--54--2-22--2-22-----0--5--7-----

Bridge continued...
G:----------------------------
D:----------------------------
A:-0>--5>--0>------44--55--77-
E:-------------7>-------------

Outro "Hey, Hey...."
    4x (then play after stars)
G:---------*----------------------
D:---------*----------------------
A:-0>--5>--*-----44--55--77-------
E:---------*-77-------------5~~~--

It too me long enough, to write this, plus it's a correction, off the other
version of unsaid. so i didnt feel like writing the timings, just listen to the
cd, its an easy song, just about all MxPx songs are. Quetions, comments, e-mail me 
at Lamar148@aol.com, Thanks! PS: Ryan Willet, stop tabbing songs, u suck, or 
your bass mut be out of tune or something, b/c ures are always wrong. 
Comments