Mxpx - Under Lock And Key Chords & Tabs

 

Under Lock And Key Chords & Tabs

Mxpx Chords & Tabs

Version: 4 Type: Tab 0 ratings
1 star 2 stars 3 stars 4 stars 5 stars
comments

Under Lock And Key Tab

   
Artist: Mxpx
Song: Under Lock and Key
Album: Slowly Going the Way of the Buffalo
Tabbed by: Andrew Lassise

Intro:

e---------------------------------------------------------------------------
B---------------------------------------------------------------------------
G---8-8-8-8-8-8-8---3\5-5-5-5-5-5-5-----------------------------------------
D---8-8-8-8-8-8-8---3\5-5-5-5-5-5-5---5\6-6-6-6-6-6-6---7\8-8-8-8-8-8-8-8---
A---6-6-6-6-6-6-6---1\3-3-3-3-3-3-3---5\6-6-6-6-6-6-6---7\8-8-8-8-8-8-8-8---
E-------------------------------------3\4-4-4-4-4-4-4---5\6-6-6-6-6-6-6-6---

Verse:

e--------------------------------------------------------------------------
B--------------------------------------------------------------------------
G--8-8-8-8-8-8-8-8------------------------------------5-5-5-5--------------
D--8-8-8-8-8-8-8-8--6-6-6-6-6-6-6-6--8-8-8-8-8-8-8-8--5-5-5-5-6-6-8-8------
A--6-6-6-6-6-6-6-6--6-6-6-6-6-6-6-6--8-8-8-8-8-8-8-8--3-3-3-3-6-6-8-8------
E-------------------4-4-4-4-4-4-4-4--6-6-6-6-6-6-6-6----------4-4-6-6------

D#5                                                  G#5
There's something crazy, something strange about the way Im lazy
                   A#5                               C5
and how I go about giving my time and how I reason.  Do all my
                         G#5   A#5      D#5
problems have to do with how I reason?  Dont feel bad if you
                   G#5
havent figured out cause im not mad there's really no need to
        A#5                                                 C5
shout.  There's really no way you could have estimated that you
                          G#5 A#5
would ever in your life be so frustrated.

Chorus:

e---------------------------------------------------------------------------
B---------------------------------------------------------------------------
G---------------------5-5-5-5-5-5-5-5---------------------------------------
D---5-5-5-5-5-5-5-5---5-5-5-5-5-5-5-5---6-6-6-6-6-6-6-6---8-8-8-8-8-8-8-8---
A---5-5-5-5-5-5-5-5---3-3-3-3-3-3-3-3---6-6-6-6-6-6-6-6---8-8-8-8-8-8-8-8---
E---3-3-3-3-3-3-3-3---------------------4-4-4-4-4-4-4-4---6-6-6-6-6-6-6-6---

G5                   C5                 G#5
If you know what was good for you you'd lock me up throw away the
A#5                 G5        C5               G#5
key.  You dont need me no you never will.  You never did as far as
A#5
I can tell.

Verse:

e------------------------------------------------------------------------
B------------------------------------------------------------------------
G--8x-------------------------------------------------5-5-5-5------------
D--8x---------------6x---------------8x---------------5-5-5-5-6-6-8-8----  
A--6x---------------6x---------------8x---------------3-3-3-3-6-6-8-8----
E-------------------4x---------------6x-----------------------4-4-6-6----
[ Tab from: http://www.guitartabs.cc/tabs/m/mxpx/under_lock_and_key_tab_ver_4.html ]
e--------------------------------------------------------------------------
B--------------------------------------------------------------------------
G--8-8-8-8-8-8-8-8------------------------------------5-5-5-5--------------
D--8-8-8-8-8-8-8-8--6-6-6-6-6-6-6-6--8-8-8-8-8-8-8-8--5-5-5-5-6-6-8-8------
A--6-6-6-6-6-6-6-6--6-6-6-6-6-6-6-6--8-8-8-8-8-8-8-8--3-3-3-3-6-6-8-8------
E-------------------4-4-4-4-4-4-4-4--6-6-6-6-6-6-6-6----------4-4-6-6------

D#5                                              G#5
Should I wake up and explain myself to you?  Or should I not care
                                  A#5
and sleep the whole day through?  Finding the sense in everything
        C5                              G#5     A#5    D#5
is like going through my head to find a diamond ring.  Living day
                               G#5
by day is all that I can say.  Something to believe in
                         A#5
might be the other way.  We cant know for sure until we open the
       C5                               G#5  A#5
door.  Inherent choices, choices I cant take anymore.

Chorus:

e---------------------------------------------------------------------------
B---------------------------------------------------------------------------
G---------------------5-5-5-5-5-5-5-5---------------------------------------
D---5-5-5-5-5-5-5-5---5-5-5-5-5-5-5-5---6-6-6-6-6-6-6-6---8-8-8-8-8-8-8-8---
A---5-5-5-5-5-5-5-5---3-3-3-3-3-3-3-3---6-6-6-6-6-6-6-6---8-8-8-8-8-8-8-8---
E---3-3-3-3-3-3-3-3---------------------4-4-4-4-4-4-4-4---6-6-6-6-6-6-6-6---

G5                   C5                 G#5
If you know what was good for you you'd lock me up throw away the
A#5                 G5        C5               G#5
key.  You dont need me no you never will.  You never did as far as
A#5
i can tell you.

Interlude:

e--------------------------  
B-------------------------- 
G--8-8--8------------------ 
D--8-8--8---6-6--5-5---8--- 
A--6-6--6---6-6--5-5---8---
E-----------4-4--3-3---6---

Chorus:

e---------------------------------------------------------------------------
B---------------------------------------------------------------------------
G---------------------5-5-5-5-5-5-5-5---------------------------------------
D---5-5-5-5-5-5-5-5---5-5-5-5-5-5-5-5---6-6-6-6-6-6-6-6---8-8-8-8-8-8-8-8---
A---5-5-5-5-5-5-5-5---3-3-3-3-3-3-3-3---6-6-6-6-6-6-6-6---8-8-8-8-8-8-8-8---
E---3-3-3-3-3-3-3-3---------------------4-4-4-4-4-4-4-4---6-6-6-6-6-6-6-6---

G5                   C5                 G#5
If you know what was good for you you'd lock me up throw away the
A#5                 G5        C5               G#5
key.  You dont need me no you never will.  You never did as far as
A#5
i can tell you.

Interlude:

e------------------------------------------------------
B------------------------------------------------------
G--8/--------------------------------------------------
D--8/-------3\5/-------5\6/-------7\8-8-8-8-8-8-8-8----  
A--6/-------3\5/-------5\6/-------7\8-8-8-8-8-8-8-8----
E-----------1\3/-------3\4/-------5\6-6-6-6-6-6-6-6----

e--------   
B--------  
G--8~----
D--8~----  
A--6~----
E--------

Outro:

e--------------------------  
B-------------------------- 
G--8-8--8------------------ 
D--8-8--8---6-6--5-5---8--- 
A--6-6--6---6-6--5-5---8---
E-----------4-4--3-3---6---

Guitar 2:

e-------------
B-------------
G--88888888---
D--xxxxxxxx---
A--66666666---
--------------
Comments