Mxpx - Too Much Thinking Chords & Tabs

 

Too Much Thinking Chords & Tabs

Mxpx Chords & Tabs

Version: 1 Type: Bass Tab 0 ratings
1 star 2 stars 3 stars 4 stars 5 stars
comments

Too Much Thinking Bass Tab

Band: MxPx
Song: Too Much Thinking
Album: Pokinatcha
Tabbed by: Dan Roth danlroth@aol.com
I don't play bass, I am a guitarist so if this is wrong please e-mail 
me and tell me.
I don't know how many times each note is played so improvise.
Rhythm 1
G--------------------------------------------------------------------
D--------------------------------------------------------------------
A----------3------------------------------------5-------------------
E----------------------------3-------------------------------1/3----
Rhythm 2
G--------------------------------------------------------------------------
D------------------2---3---5-----------3---2----------------------------
A-------------3------------------------------------5---------------------
E---------------------------------------------------------1---1------3--
Chorus
Rhythm 3 (4X)
G-------------------------------------------------------------------------
D-------------------------------------------------------------------------
A------------5--------------------------------3--------------------------
E---------------------------3---------------------------------------3----
Bridge
Rhythm 4 (4X)
G------------------------------------------------------------------------------
D----------------------------3----------------------5-----3-----2------------
A-------------------3-------------------3---------------------------------5--
E-----------------------------------------------------------------------------
They don't actually end this song so you can end any way you want but I usually end on C.
E-Mail me and we'll talk danlroth@aol.com 


[ Tab from: http://www.guitartabs.cc/tabs/m/mxpx/too_much_thinking_btab.html ]
Comments