Mxpx - Tomorrows Another Day Chords & Tabs

 

Tomorrows Another Day Chords & Tabs

Mxpx Chords & Tabs

Version: 1 Type: Bass Tab 0 ratings
1 star 2 stars 3 stars 4 stars 5 stars
comments

Tomorrows Another Day Bass Tab

no one else could tab this song correctly so i did. In the intro part of the song
you can use the extra note that i put in to spice up the song with a step down
while the guitarist is switching cords.  This tab should be 100% correct. If you
find any problems or have questions on this song or any other MxPx song e-mail me
at vipertcat451@aol.com I can play practically every MxPX song on my bass. Enjoy


Intro:1x
                   "I don't want to        let my life fly by"
G:-------------------------------------------------------------
D:-------------------------------------------------------------
A:-----------------222222222-0-------------44444444-5-7777777--
E:-222222222222222-------------22222222-4----------------------

"Do you ever stop         Stop to wonder why?"
G:---------------------------------------
D:---------------------------------------
A:--22222222-0-------------44444444-5-7~~(let ring)
E:-------------22222222-4----------------

Verse:4x
"And time fly's by....."
G:-----------------------
D:-----------------------
A:-2222-------4444--7777-
E:------2222-------------

Chorus:1x
             "I don't want to let my life fly by"
G:----------------------
D:----------------------
A:--22---22-------------
E:-----------00000000---
            "Did you ever stop to wonder why......"
G:-------------------------
D:-------------------------
A:--22--22-----------------
E:----------00000000000000-
[ Tab from: http://www.guitartabs.cc/tabs/m/mxpx/tomorrows_another_day_btab.html ]
Guitar interlude thingy:2x
G:----------------------
D:----------------------
A:-2222------4444--7777-
E:------2222------------

Verse:4x
"and time stands still when no one understands you..."
G:-----------------------
D:-----------------------
A:-2222-------4444--7777-
E:------2222-------------
Chorus:1x
              "I don't want to let my life fly by"
G:----------------------
D:----------------------
A:--22---22-------------
E:-----------00000000---
            "did you ever stop to wonder why..."
G:-------------------------
D:-------------------------
A:--22--22-----------------
E:----------00000000000000-

Bass Interlude:1x
G:---------------------------------------------------------------------------
D:---------------------------------------------------------------------------
A:-2-2-222--2-2-222--------------------------4-4-444--4-4-444----------------
E:------------------------2-2-222ó2-2-222--------------------------0000-2222-

Verse:4x
"Today didn't ahve to be this way..."
G:-----------------------
D:-----------------------
A:-2222-------4444--7777-
E:------2222-------------

Alter 4th time let a C(third fret on A string) ring)

Break

Verse:4x
"I don't want to, I don't want to,  don't want to, you don't want to..."
G:------------------------
D:------------------------
A:-2222-------4444--7777--
E:------2222--------------

Alter 4th time let a C(third fret on A string) ring)


Thatís all
Later,
Nate
Comments