Mxpx - Theme Fiasco Chords & Tabs

 

Theme Fiasco Chords & Tabs

Mxpx Chords & Tabs

Version: 2 Type: Bass Tab 0 ratings
1 star 2 stars 3 stars 4 stars 5 stars
comments

Theme Fiasco Bass Tab

Band: MXPX
Song: Theme Fiasco
Bassist: Mike Herrera
Tabbed by: James Bradley

Alright, this song is cool, but it was tricky figuring out.
Here goes

First part:
G-------------------------------------------------------
D-------------8------------8----------------------------
A--7-7-10-7-7---7-7-10-7-7----7-10-10-------------------
E-------------------------------------------------------

Second part:
G-------------------------------------------------------
D------6-6-0-----7-7-0------8-8-0---9-8----9-8----------
A--7-7-------7-7--------7-7-------7-----7------7--------
E-------------------------------------------------------

At the very end of the second part:
G----------------9-7------------------------------------
D----9-8---9-8-------9-8--------------------------------
A--7-----7-----7----------------------------------------
E-------------------------------------------------------
I'm not sure how many times you play it, but you can
figure it out.
[ Tab from: http://www.guitartabs.cc/tabs/m/mxpx/theme_fiasco_btab_ver_2.html ]
Third part:
G----------------------------------------55-44----------
D----88-77----77-55----------55----55-77-------55----77-
A--77------77-------77-55-66----77----------------55----
E-------------------------------------------------------

G-------------------------------------55-44-------------
D----88-77----77-55-------------55-77-------55----77----
A--77------77-------77-55-66-77----------------55-------
E-------------------------------------------------------

Fourth part:
G-------------------------------------------------------
D-------5-----------------------------------------------
A-77-77-------------------------------------------------
E-------------------------------------------------------



Fifth part:
G-------------------------------------------------------
D------------0---0--------------------------------------
A------0-1-2---2----------------------------------------
E--0-3--------------------------------------------------

Then it goes back to the first part
and that's pretty much it.
Comments