Mxpx - The Wonder Years Chords & Tabs

 

The Wonder Years Chords & Tabs

Mxpx Chords & Tabs

Version: 1 Type: Tab 0 ratings
1 star 2 stars 3 stars 4 stars 5 stars
comments

The Wonder Years Tab

#----------------------------------PLEASE NOTE---------------------------------#
#This file is the author's own work and represents their interpretation of the #
#song. You may only use this file for private study, scholarship, or research. #
#------------------------------------------------------------------------------#
#
Date: Sun, 24 Dec 1995 05:32:51 -0800
From: Stash Fortier 
Subject: TAB: The Wonder Years by MxPx
-----------------------------------------------------------------------
                        MxPx-The Wonder Years
-----------------------------------------------------------------------
By:Stash Fortier(stash@nt.net)
PART 1
e|--------------------------------------------------------------------|
B|--------------------------------------------------------------------|
G|-5------------------------------------------------------------------|
D|-5----7----5----3--X2-3-3-3-3-3-3-3-3-3-3-3-3-3-3-3-3-3-3-3---------|
A|-3----7----5----3-----3-3-3-3-3-3-3-3-3-3-3-3-3-3-3-3-3-3-3---------|
E|------5----3----1-----1-1-1-1-1-1-1-1-1-1-1-1-1-1-1-1-1-1-1---------|
                          PM.............   PM...............
PART 2
E|--------------------------------------------------------------------|
B|--------------------------------------------------------------------|
G|-5------------5-XX--------------------------------------------------|
D|-5-7-5-3--X2--5-XX-7-XX-5-XX-3-XX--X2-------------------------------|
A|-3-7-5-3------3-XX-7-XX-5-XX-3-XX-----------------------------------|
E|---5-3-1-----------5-XX-3-XX-1-XX-----------------------------------|
PART 3
e|--------------------------------------------------------------------|
B|--------------------------------------------------------------------|
G|-5-5-5-5-----------------------------5------------------------------|
D|-5-5-5-5-7-7-7-7-5-5-5-5-3-3-3-3--X4-5----5----7-7-7-7--X2----------|
A|-3-3-3-3-7-7-7-7-5-5-5-5-3-3-3-3-----3----5----7-7-7-7--------------|
E|---------5-5-5-5-3-3-3-3-1-1-1-1----------3----5-5-5-5--------------|
PART 4
e|--------------------------------------------------------------------|
B|--------------------------------------------------------------------|
G|-X-5-X-5------------------------------------------------------------|
D|-X-5-X-5-X-7-X-7-X-5-X-5-X-3-X-3-X---X2-----------------------------|
A|-X-3-X-3-X-7-X-7-X-5-X-5-X-3-X-3-X----------------------------------|
E|---------X-5-X-5-X-3-X-3-X-1-X-1-X----------------------------------|
REPEAT PART 3
PART 5
e|--------------------------------------------------------------------|
B|--------------------------------------------------------------------|
G|-5-5-5-5-5-5-5-5-5----------------------------------------5-5-5-5-5-|
D|-5-5-5-5-5-5-5-5-5--7-7-7-7-7-7-7-7-7--3-3-3-3-3-3-3-3-3--5-5-5-5-5-|
A|-3-3-3-3-3-3-3-3-3--7-7-7-7-7-7-7-7-7--3-3-3-3-3-3-3-3-3--3-3-3-3-3-|
E|--------------------5-5-5-5-5-5-5-5-5--1-1-1-1-1-1-1-1-1------------|
     PM.............    PM.............    PM.............    PM......
e|--------------------------------------------------------------------|
B|--------------------------------------------------------------------|
G|-5-5-5-5------------------------------------------------------------|
D|-5-5-5-5------------------------------------------------------------|
A|-3-3-3-3------------------------------------------------------------|
E|--------------------------------------------------------------------|
   PM.....
PART 6
e|--------------------------------------------------------------------|
B|--------------------------------------------------------------------|
G|-5-XX-5-X-5-X-5-----------------------------------------------------|
D|-5-XX-5-X-5-X-5-7-XX-7-X-7-X-7-3-XX-3-X-3-X-3-5-XX-5-X-5-X-5--------|
A|-3-XX-3-X-3-X-3-7-XX-7-X-7-X-7-3-XX-3-X-3-X-3-5-XX-5-X-5-X-5--------|
E|----------------5-XX-5-X-5-X-5-1-XX-1-X-1-X-1-3-XX-3-X-3-X-3--------|
PART 7
e|--------------------------------------------------------------------|
B|--------------------------------------------------------------------|
G|-5-----------------5------------------------------------------------|
D|-5-7-3-3-3-3-5--X2-5------------------------------------------------|
A|-3-7-3-3-3-3-5-----3------------------------------------------------|
E|---5-1-1-1-1-3------------------------------------------------------|


[ Tab from: http://www.guitartabs.cc/tabs/m/mxpx/the_wonder_years_tab.html ]
Comments