Mxpx - The Theme Fiasco Chords & Tabs

 

The Theme Fiasco Chords & Tabs

Mxpx Chords & Tabs

Version: 1 Type: Tab 0 ratings
1 star 2 stars 3 stars 4 stars 5 stars
comments

The Theme Fiasco Tab

THE THEME FIASCO - MxPx

Tabbed By: Keith Davis   k3davis@ucsd.edu

~ = bend
/u= slide  up

E----------------------------------------------------------------
B---------------------------9----------9-------------------------
G--9-9--------9-9------9-9--8-----9-9--8----9-9--9........9~-----
D--9-9--------9-9------9-9--6-----9-9--6----9-9--9........7~-----
A--7-7--------7-7------7-7--------7-7-------7-7--7........7~-----
E----------------------------------------------------------------

 at 1:15....
E------    -------------------------      -----
B--12--    --9----10---11---12------      --12-
G--11--    --8----9----10---11------  x3  --11-
D--9---    --6----7----8-----9------      --9-- 
A------    -------------------------      -----
E------    -------------------------      -----
[ Tab from: http://www.guitartabs.cc/tabs/m/mxpx/the_theme_fiasco_tab.html ]
at 1:35.... (timing here is confusing)
E-------------------------------------------
B----------------------------10-10---10-10--
G--9-9---9-9---9-9----9-9-----9--9----9--9--
D--9-9---9-9---9-9----9-9-----7--7----7--7--
A--7-7---7-7---7-7----7-7-------------------
E-------------------------------------------

E---------------------------------------------
B--------------------9-10---------------------
G--9-9---9-9---9-9---8-9-----9-9--------------
D--9-9---9-9---9-9---6-7-----9-9--------------
A--7-7---7-7---7-7-----------7-7--------------
E---------------------------------------------

at 1:47.....     
B--------------x-x-x-x-x-------
G--------------x-x-x-x-x--9---
D--9-9--9-9/u--x-x-x-x-x--8--- x4
A--9-9--9-9/u--x-x-x-x-x--6---
E--7-7--7-7/u--x-x-x-x-x-------

at 2:00
E----------
B----------  
G--9~------   repeat   
D--9~------
A--7~------
E----------
Comments