Mxpx - The Ever Passing Moment Chords & Tabs

 

The Ever Passing Moment Chords & Tabs

Mxpx Chords & Tabs

Version: 2 Type: Bass Tab 0 ratings
1 star 2 stars 3 stars 4 stars 5 stars
comments

The Ever Passing Moment Bass Tab

Artist: MxPx
Album: The Ever Passing Moment
Originally tabbed by: Ryan willet

Key  *  =  CONSULT THE CD FOR THE AMOUNT OF TIMES PLAYED AND THE RHYTHM

G|---------------------------------------------------------------------------|
D|---------------------------------------------------------------------------|
A|----------------------6-6-6-6-6-6-----2-2-2-2-2-2--------3--2--1--3--2--4--|
E|---2-2-2-2-2-2-------------------------------------------------------------|
[ Tab from: http://www.guitartabs.cc/tabs/m/mxpx/the_ever_passing_moment_btab_ver_2.html ]
G|---------------------------------------------------------------------------|
D|---------------------------------------------------------------------------|
A|----------------------6-6-6-6-6-6-----2-2-2-2-2-2---------4-4-4-4-4-4------|
E|---2-2-2-2-2-2-------------------------------------------------------------|

G|---------------------------------------------------------------------------|
D|---------------------------------------------------------------------------|
A|---------------6*----------2*---------3--2--1--3--2--4---------------------|
E|----2*---------------------------------------------------------------------|

Comments