Mxpx - Responsibility Chords & Tabs

 

Responsibility Chords & Tabs

Mxpx Chords & Tabs

Version: 3 Type: Tab 0 ratings
1 star 2 stars 3 stars 4 stars 5 stars
comments

Responsibility Tab

   
Song: Responsibility
Artist: MxPx
Album: Ever Passing Moment
Tabbed by Erik Peterson   Grayfox119@inkme.net

legend-                     This tab is perfect but if u 
R- let note wring           see any mistakes e-mali me!!      


[ Tab from: http://www.guitartabs.cc/tabs/m/mxpx/responsibility_tab_ver_3.html ]
intro  
   E B E         A
e|-----------------
B|-----------------
G|-9---9-----------          < play all this 4 times
D|-9-9-9 8 times-7-
A|-7-9-7---------7 4 times 
E|---7-----------5-
______________________________________________________
Verse
e|-----------------
B|-----------------
G|-9---9-----------    < this 2 times
D|-9-9-9-7---------
A|-7-9-7-7 8 times-
E|---7---5---------
______________________________________________________
Pre-chorus (why lie, do or die...)
e|----------------------------------
B|----------------------------------
G|-----------9---------9------------
D|-9----7----9 x1-7----9 x1-9----7--
A|-9 x5-7 x5-7----7 x3-7----9-R -7-R   
E|-7----5---------5---------7----5--
______________________________________________________
Chorus (listen to the song for phrasing) 
(responsibility whats that...)
e|----------------
B|----------------
G|-9--------------
D|-9 x4-7----9----  A|-7-9-7-
E|---7-5-
______________________________________________________
then do intro 
then do chorus
______________________________________________________
outro

just play chorus 2 times 
then end on an E chord
Comments