Mxpx - Responsibility Intro Chords & Tabs

 

Responsibility Intro Chords & Tabs

Mxpx Chords & Tabs

Version: 1 Type: Tab 0 ratings
1 star 2 stars 3 stars 4 stars 5 stars
comments

Responsibility Intro Tab

   
intro
 e B 
-----------------------------------
-----------------------------------
---------------------------9--------
-------6--9--6--------6--9-9------  repeat
--7-7------------7-7-----7-9------
-----------------------------7------

-----------------------------------
-----------------------------------
---9-------9-9/-------------------
---9---9---9-9/------------------- X 3
---7---9---7-7/-------------------
-------7---------------------------

My first tab.  thanks D_86

[ Tab from: http://www.guitartabs.cc/tabs/m/mxpx/responsibility_intro_tab.html ]
Comments