Mxpx - Responsibility Chords & Tabs

 

Responsibility Chords & Tabs

Mxpx Chords & Tabs

Version: 2 Type: Bass Tab 0 ratings
1 star 2 stars 3 stars 4 stars 5 stars
comments

Responsibility Bass Tab

   
Song: Responsibility
Band: MxPx
Tabbed By: Dave Parisi

Intro
G:----------------
D:----------------  Repeat 3 more times
A:7---------------
E:-7-00000000-5555

Bridge
G:-----
D:-----
A:7----
E:-7-00

Verse
G:----------------------------------
D:----------------------------------
A:----------------------------------
E:55--00--55555555--00--55--55555555

Intro to chorus
G:-------------------------------------------------
D:-------------------------------------------------
A:-------------------------------------------------
E:77777777-55555555-00000000-5555-00000000-5555-7-5

Chorus1
G:----------------
D:----------------   Repeat 2 more times
A:7p7p7p7p--------
E:--------5p5p7p7p

After 3rd time
G:-----
D:-----
A:4----
E:--5-7

Bridge
G:-----
D:-----   Reapeat 2 more times
A:7----
E:-7-00

Verse
G:----------------------------------
D:----------------------------------
A:----------------------------------
E:55--00--55555555--00--55--55555555

Intro to chorus
G:-------------------------------------------------
D:-------------------------------------------------
A:-------------------------------------------------
E:77777777-55555555-00000000-5555-00000000-5555-7-5
[ Tab from: http://www.guitartabs.cc/tabs/m/mxpx/responsibility_btab_ver_2.html ]
Chorus1
G:----------------
D:----------------   Repeat 2 more times
A:7p7p7p7p--------
E:--------5p5p7p7p

After 3rd time
G:-----
D:-----
A:4----
E:--5-7

Chorus2  (It might not be 12 times but just make it fit)
G:-----------------------------------------------------
D:-----------------------------------------------------
A:777777777777---------------------------------------7-
E:------------999999999999-777777777777-555555555555--7

G:-------------------------------------------------------
D:-------------------------------------------------------
A:777777777777---------------------------------------7---
E:------------999999999999-777777777777-555555555555--7-5

Intro
G:----------------
D:----------------  Repeat 1 more time
A:7---------------
E:-7-00000000-5555

G:--
D:--
A:7-
E:-7

Chorus1
G:----------------
D:----------------   Repeat 2 more times
A:7p7p7p7p--------
E:--------5p5p7p7p

After 3rd time
G:-----
D:-----
A:4----
E:--5-7

Chorus1
G:------------
D:------------   Repeat 2 more times
A:7777--------
E:--------5577

After 3rd time
G:-------------
D:-------------
A:4-----7-4----
E:--5-7-----5-7

That is the version from the CD, But when they played on farmclub
they added this to the end.

Intro
G:----------------
D:----------------  Repeat 3 more times
A:7---------------
E:-7-00000000-5555

Bridge
G:----
D:----
A:7---
E:-7-0



Comments