Mxpx - Play It Loud Chords & Tabs

 

Play It Loud Chords & Tabs

Mxpx Chords & Tabs

Version: 1 Type: Tab 0 ratings
1 star 2 stars 3 stars 4 stars 5 stars
comments

Play It Loud Tab

MxPx
Play it Loud

hey back again... i heard this song about a year ago on SSX 3 (video game) and i
thought i'd tab it... tuning is regular and a half-step down ughh
(i might make another tab after this in drop d so u dont have to tune it down and
stuff)

--------------------------------------------------------------------------
Guitar 1 (rhythm)

intro

Eb|---------------------------|
Bb|---------------------------|
Gb|--2--------4-4-4--44--9-8--|
Db|--2---2----4-4-4--44--9-8--|
Ab|--0---2----2-2-2--22--7-6--|
Eb|------0--------------------|

Eb|---------------------------------------------|
Bb|---------------------------------------------|
Gb|--4-4-4--44--9-8----4-4-4--44--9-8----2------|
Db|--4-4-4--44--9-8----4-4-4--44--9-8----2---2--|
Ab|--2-2-2--22--7-6----2-2-2--22--7-6----0---2--|
Db|------------------------------------------0--|

verse (insanely fast strumming/palm-muting)

Eb|----------------------------------------|
Bb|----------------------------------------|
Gb|--4--444444-44444444-44444444-44444444--|
Db|--4--444444-44444444-44444444-44444444--|
Ab|--2--222222-22222222-22222222-22222222--|
Db|----------------------------------------|

Eb|---------------------------------------|
Bb|---------------------------------------|
Gb|--44444444-44444444-44444444-44444444--|
Db|--44444444-44444444-44444444-44444444--|
Ab|--22222222-22222222-22222222-22222222--|
Db|---------------------------------------|
*all palm-muting except for the first note and the last set of 8 notes

in between verse

Eb|--------------------------------------------|
Bb|--------------------------------------------|
Gb|-----------4-4-4--44--9-8---4-4-4--44--9-8--|
Db|--4---2----4-4-4--44--9-8---4-4-4--44--9-8--|
Ab|--4---2----2-2-2--22--7-6---2-2-2--22--7-6--|
Eb|--2---0-------------------------------------|

then back to the fast stuff

Eb|----------------------------------------|
Bb|----------------------------------------|
Gb|--4--444444-44444444-44444444-44444444--|
Db|--4--444444-44444444-44444444-44444444--|
Ab|--2--222222-22222222-22222222-22222222--|
Db|----------------------------------------|

Eb|---------------------------------------|
Bb|---------------------------------------|
Gb|--44444444-44444444-44444444-44444444--|
Db|--44444444-44444444-44444444-44444444--|
Ab|--22222222-22222222-22222222-22222222--|
Db|---------------------------------------|
*all palm-muting except for the first note and the last set of 8 notes

pre-chorus

Eb|--------------------------------------------|
Bb|--------------------------------------------|
Gb|-----------4-4-4--44--9-8---4-4-4--44--9-8--|
Db|--4---2----4-4-4--44--9-8---4-4-4--44--9-8--|
Ab|--4---2----2-2-2--22--7-6---2-2-2--22--7-6--|
Eb|--2---0-------------------------------------|

Eb|------------------------------------|
Bb|------------------------------------|
Gb|-----------4-4-4--44--9-8----2---9--|
Db|--4---2----4-4-4--44--9-8----2---9--|
Ab|--4---2----2-2-2--22--7-6----0---7--|
Eb|--2---0-----------------------------|

chorus

Eb|---------------------------------------------------------|
Bb|---------------------------------------------------------|
Gb|--44444444-44444444-22222222-22222222--------------------|
Db|--44444444-44444444-22222222-22222222-22222222-22222222--|
Ab|--22222222-22222222-00000000-00000000-22222222-22222222--|
Db|--------------------------------------00000000-00000000--|

Eb|---------------------------|
Bb|---------------------------|
Gb|--4-4-4--44--9-8----2------|
Db|--4-4-4--44--9-8----2---2--|
Ab|--2-2-2--22--7-6----0---2--|
Db|------------------------0--|

verse (insanely fast strumming/palm-muting)

Eb|----------------------------------------|
Bb|----------------------------------------|
Gb|--4--444444-44444444-44444444-44444444--|
Db|--4--444444-44444444-44444444-44444444--|
Ab|--2--222222-22222222-22222222-22222222--|
Db|----------------------------------------|

Eb|---------------------------------------|
Bb|---------------------------------------|
Gb|--44444444-44444444-44444444-44444444--|
Db|--44444444-44444444-44444444-44444444--|
Ab|--22222222-22222222-22222222-22222222--|
Db|---------------------------------------|
*all palm-muting except for the first note and the last set of 8 notes

in between verse

Eb|--------------------------------------------|
Bb|--------------------------------------------|
Gb|-----------4-4-4--44--9-8---4-4-4--44--9-8--|
Db|--4---2----4-4-4--44--9-8---4-4-4--44--9-8--|
Ab|--4---2----2-2-2--22--7-6---2-2-2--22--7-6--|
Eb|--2---0-------------------------------------|

then back to the fast stuff

Eb|----------------------------------------|
Bb|----------------------------------------|
Gb|--4--444444-44444444-44444444-44444444--|
Db|--4--444444-44444444-44444444-44444444--|
Ab|--2--222222-22222222-22222222-22222222--|
Db|----------------------------------------|

Eb|---------------------------------------|
Bb|---------------------------------------|
Gb|--44444444-44444444-44444444-44444444--|
Db|--44444444-44444444-44444444-44444444--|
Ab|--22222222-22222222-22222222-22222222--|
Db|---------------------------------------|
*all palm-muting except for the first note and the last set of 8 notes

pre-chorus

Eb|--------------------------------------------|
Bb|--------------------------------------------|
Gb|-----------4-4-4--44--9-8---4-4-4--44--9-8--|
Db|--4---2----4-4-4--44--9-8---4-4-4--44--9-8--|
Ab|--4---2----2-2-2--22--7-6---2-2-2--22--7-6--|
Eb|--2---0-------------------------------------|

Eb|------------------------------------|
Bb|------------------------------------|
Gb|-----------4-4-4--44--9-8----2---9--|
Db|--4---2----4-4-4--44--9-8----2---9--|
Ab|--4---2----2-2-2--22--7-6----0---7--|
Eb|--2---0-----------------------------|

then chorus

Eb|---------------------------------------------------------|
Bb|---------------------------------------------------------|
Gb|--44444444-44444444-22222222-22222222--------------------|
Db|--44444444-44444444-22222222-22222222-22222222-22222222--|
Ab|--22222222-22222222-00000000-00000000-22222222-22222222--|
Db|--------------------------------------00000000-00000000--|

Eb|---------------------------|
Bb|---------------------------|
Gb|--4-4-4--44--9-8----2------|
Db|--4-4-4--44--9-8----2---2--|
Ab|--2-2-2--22--7-6----0---2--|
Db|------------------------0--|

Eb|------------------------------------------------------------|
Bb|------------------------------------------------------------|
Gb|--44444444-44444444-22222222-22222222--------------------4--|
Db|--44444444-44444444-22222222-22222222-22222222-22222222--4--|
Ab|--22222222-22222222-00000000-00000000-22222222-22222222--2--|
Db|--------------------------------------00000000-00000000-----|

then bridge

Eb|--------------------------|
Bb|--------------------------|
Gb|--------------------------|
Db|--2---2----4---4---4---4--|
Ab|--2---2----4---4---4---4--|
Db|--0---0----2---2---2---2--|
*let all the notes ring and it's a slow bridge by the way

then drum bit....

then

Eb|--------------------------------|
Bb|--------------------------------|
Gb|--2------4---2-------4---2---9--|
Db|--2--2---4---2---2---4---2---9--|
Ab|--0--2---2---0---2---2---0---7--|
Db|-----0-----------0--------------|
*let it all ring... pretty slow part

outro

Eb|---------------------------------------------------------|
Bb|---------------------------------------------------------|
Gb|--44444444-44444444-22222222-22222222--------------------|
Db|--44444444-44444444-22222222-22222222-22222222-22222222--|
Ab|--22222222-22222222-00000000-00000000-22222222-22222222--|
Db|--------------------------------------00000000-00000000--|

then

Eb|---------------------------|
Bb|---------------------------|
Gb|--4-4-4--44--9-8----2------|
Db|--4-4-4--44--9-8----2---2--|
Ab|--2-2-2--22--7-6----0---2--|
Db|------------------------0--| (this part x3)

and finally
[ Tab from: http://www.guitartabs.cc/tabs/m/mxpx/play_it_loud_tab.html ]
Eb|-----------------------------------------|
Bb|-----------------------------------------|
Gb|--4-4-4--44--9-8----4-4-4--44--9-8----4--|
Db|--4-4-4--44--9-8----4-4-4--44--9-8----4--|
Ab|--2-2-2--22--7-6----2-2-2--22--7-6----2--|
Db|-----------------------------------------|

--------------------------------------------------------------------------
Guitar 2 (higher notes)

intro (he uses a studder effect and harmonics)

Eb|-----------------------------------------------------------|
Bb|--0-0-0-0-*12-*12-*12-*12-*12-*12-*12-*12-*12-*12-*12-*12--|
Gb|-----------------------------------------------------------|
Db|-----------------------------------------------------------|
Ab|-----------------------------------------------------------|
Db|-----------------------------------------------------------|

then

Eb|---------------------------|
Bb|---------------------------|
Gb|--2--------4-4-4--44--9-8--|
Db|--2---2----4-4-4--44--9-8--|
Ab|--0---2----2-2-2--22--7-6--|
Eb|------0--------------------|

Eb|---------------------------------------------|
Bb|---------------------------------------------|
Gb|--4-4-4--44--9-8----4-4-4--44--9-8----2---9--|
Db|--4-4-4--44--9-8----4-4-4--44--9-8----2---9--|
Ab|--2-2-2--22--7-6----2-2-2--22--7-6----0---7--|
Db|---------------------------------------------|

then verse

Eb|----------------------------------------|
Bb|----------------------------------------|
Gb|--4--444444-44444444-44444444-44444444--|
Db|--4--444444-44444444-44444444-44444444--|
Ab|--2--222222-22222222-22222222-22222222--|
Db|----------------------------------------|

Eb|---------------------------------------|
Bb|---------------------------------------|
Gb|--44444444-44444444-44444444-44444444--|
Db|--44444444-44444444-44444444-44444444--|
Ab|--22222222-22222222-22222222-22222222--|
Db|---------------------------------------|
*all palm-muting except for the first note and the last set of 8 notes

in between verse

Eb|--------------------------------------------|
Bb|--------------------------------------------|
Gb|-----------4-4-4--44--9-8---4-4-4--44--9-8--|
Db|--4---2----4-4-4--44--9-8---4-4-4--44--9-8--|
Ab|--4---2----2-2-2--22--7-6---2-2-2--22--7-6--|
Eb|--2---0-------------------------------------|

then back to the fast stuff

Eb|----------------------------------------|
Bb|----------------------------------------|
Gb|--4--444444-44444444-44444444-44444444--|
Db|--4--444444-44444444-44444444-44444444--|
Ab|--2--222222-22222222-22222222-22222222--|
Db|----------------------------------------|

Eb|---------------------------------------|
Bb|---------------------------------------|
Gb|--44444444-44444444-44444444-44444444--|
Db|--44444444-44444444-44444444-44444444--|
Ab|--22222222-22222222-22222222-22222222--|
Db|---------------------------------------|
*all palm-muting except for the first note and the last set of 8 notes

pre-chorus

Eb|--------------------------------------------|
Bb|--------------------------------------------|
Gb|-----------4-4-4--44--9-8---4-4-4--44--9-8--|
Db|--4---2----4-4-4--44--9-8---4-4-4--44--9-8--|
Ab|--4---2----2-2-2--22--7-6---2-2-2--22--7-6--|
Eb|--2---0-------------------------------------|

Eb|------------------------------------|
Bb|------------------------------------|
Gb|-----------4-4-4--44--9-8----2---9--|
Db|--4---2----4-4-4--44--9-8----2---9--|
Ab|--4---2----2-2-2--22--7-6----0---7--|
Eb|--2---0-----------------------------|

chorus

Eb|--------------------------------------|
Bb|--5--4------5-4------5--4------5-4----|
Gb|--------4-------4----------4-------4--|
Db|--------------------------------------|
Ab|--------------------------------------|
Db|--------------------------------------| (x3)

then

Eb|---------------------------|
Bb|---------------------------|
Gb|--4-4-4--44--9-8----2---9--|
Db|--4-4-4--44--9-8----2---9--|
Ab|--2-2-2--22--7-6----0---7--|
Db|---------------------------|

verse (insanely fast strumming/palm-muting)

Eb|----------------------------------------|
Bb|----------------------------------------|
Gb|--4--444444-44444444-44444444-44444444--|
Db|--4--444444-44444444-44444444-44444444--|
Ab|--2--222222-22222222-22222222-22222222--|
Db|----------------------------------------|

Eb|---------------------------------------|
Bb|---------------------------------------|
Gb|--44444444-44444444-44444444-44444444--|
Db|--44444444-44444444-44444444-44444444--|
Ab|--22222222-22222222-22222222-22222222--|
Db|---------------------------------------|
*all palm-muting except for the first note and the last set of 8 notes

in between verse

Eb|--------------------------------------------|
Bb|--------------------------------------------|
Gb|-----------4-4-4--44--9-8---4-4-4--44--9-8--|
Db|--4---2----4-4-4--44--9-8---4-4-4--44--9-8--|
Ab|--4---2----2-2-2--22--7-6---2-2-2--22--7-6--|
Eb|--2---0-------------------------------------|

then back to the fast stuff

Eb|----------------------------------------|
Bb|----------------------------------------|
Gb|--4--444444-44444444-44444444-44444444--|
Db|--4--444444-44444444-44444444-44444444--|
Ab|--2--222222-22222222-22222222-22222222--|
Db|----------------------------------------|

Eb|---------------------------------------|
Bb|---------------------------------------|
Gb|--44444444-44444444-44444444-44444444--|
Db|--44444444-44444444-44444444-44444444--|
Ab|--22222222-22222222-22222222-22222222--|
Db|---------------------------------------|
*all palm-muting except for the first note and the last set of 8 notes

pre-chorus

Eb|--------------------------------------------|
Bb|--------------------------------------------|
Gb|-----------4-4-4--44--9-8---4-4-4--44--9-8--|
Db|--4---2----4-4-4--44--9-8---4-4-4--44--9-8--|
Ab|--4---2----2-2-2--22--7-6---2-2-2--22--7-6--|
Eb|--2---0-------------------------------------|

Eb|------------------------------------|
Bb|------------------------------------|
Gb|-----------4-4-4--44--9-8----2---9--|
Db|--4---2----4-4-4--44--9-8----2---9--|
Ab|--4---2----2-2-2--22--7-6----0---7--|
Eb|--2---0-----------------------------|

chorus

Eb|--------------------------------------|
Bb|--5--4------5-4------5--4------5-4----|
Gb|--------4-------4----------4-------4--|
Db|--------------------------------------|
Ab|--------------------------------------|
Db|--------------------------------------| (x3)

then

Eb|---------------------------|
Bb|---------------------------|
Gb|--4-4-4--44--9-8----2---9--|
Db|--4-4-4--44--9-8----2---9--|
Ab|--2-2-2--22--7-6----0---7--|
Db|---------------------------|

chorus

Eb|--------------------------------------|
Bb|--5--4------5-4------5--4------5-4----|
Gb|--------4-------4----------4-------4--|
Db|--------------------------------------|
Ab|--------------------------------------|
Db|--------------------------------------| (x3)

bridge

Eb|------------------------------------------------|
Bb|--5-4------5-4------5-4------5-4------5-4---5~--|
Gb|------4--------4--------4--------4--------4-----|
Db|--------6--------6------------------------------|
Ab|------------------------------------------------|
Db|------------------------------------------------|

then drums

then effects part (i think it's really a keyboard...)

then chorus

Eb|--------------------------------------|
Bb|--5--4------5-4------5--4------5-4----|
Gb|--------4-------4----------4-------4--|
Db|--------------------------------------|
Ab|--------------------------------------|
Db|--------------------------------------| (x3)

then

Eb|---------------------------|
Bb|---------------------------|
Gb|--4-4-4--44--9-8----2---9--|
Db|--4-4-4--44--9-8----2---9--|
Ab|--2-2-2--22--7-6----0---7--|
Db|---------------------------| (x3)

then end on 

Eb|-----------------------------------------|
Bb|-----------------------------------------|
Gb|--4-4-4--44--9-8----4-4-4--44--9-8----4--|
Db|--4-4-4--44--9-8----4-4-4--44--9-8----4--|
Ab|--2-2-2--22--7-6----2-2-2--22--7-6----2--|
Db|-----------------------------------------|

and i'm pretty sure the rest is a keyboard... and i couldn't even tab it on the guitar...


well there you go... have fun with it. if you have any comments or questions you can e-
mail me at killinginthename247@yahoo.com.
Comments