Mxpx - Play It Loud Chords & Tabs

 

Play It Loud Chords & Tabs

Mxpx Chords & Tabs

Version: 1 Type: Bass Tab

Play It Loud Bass Tab

Intro 1 (1,2,3,GO!)
G:----------|
D:----------|
A:----------|
E:-6----6---|

Guitar and Bass Intro
G:--------------------------|
D:--------------------------|
A:---------6-5---------6-5--|
E:-6x6x6x6-----6x6x6x6------|
[ Tab from: http://www.guitartabs.cc/tabs/m/mxpx/play_it_loud_btab.html ]
Verse (...rock the show...)Verse 2 
G:----------------------|--------------------|
D:----------------------|--------------------|
A:---------8>?-----6>?--|-88888888-66666666--|
E:-6>?------------------|--------------------|

Chorus (Play it loud...)
G:----------------------|
D:----------------------|
A:---------8>?-----6>?--|
E:-6>?------------------|

Bridge Part 1
G:----------------|
D:----------------|
A:-6>?-------8>?--|
E:------8>?-------|

Bridge Part 2
G:-------------------------|
D:-------------------------|
A:-------8~-----6~-----8~--|
E:-6~----------------------|

Outro Same as Intro