Mxpx - On The Outs Chords & Tabs

 

On The Outs Chords & Tabs

Mxpx Chords & Tabs

Version: 1 Type: Tab

On The Outs Tab

gian caRlo(NoXIOUS PRIX BAND)
isaBela NatiOnal HigH ScHool

On ThE OuTs....
mxpx

INTRO;
 on the outs..when she dont like you anymore
|--------------------------------------------|
|--------------------------------------------|
|-----9--------------------------------------|
|-----9-------------------------------7------|
|-----7-------------------------------7------|
|-------------------------------------5------|
     P.M                             P.M

 on the outs..your pictures shattered on the floor
|-------------------------------------------------|
|-------------------------------------------------|
|-----------------------------------4-------------|
|---4-------------------------------4-------------|
|---4-------------------------------2-------------|
|---2---------------------------------------------|
    P.M                            P.M

 On the outs..your closet scattered at the door
|----------------------------------------------|
|----------------------------------------------|
|---8-----------------------------7------------|
|---8-----------------------------7------------|
|---6-----------------------------5------------|
|----------------------------------------------|
   P.M                           P.M


 on the outs..when things just like Dont seen before
|-----------------------------------------------|
|-----------------------------------------------|
|---9-------------------------------------------|
|---9---------------------------7---------------|
|---7---------------------------7---------------|
|-------------------------------5---------------|
   P.M                         P.M

refrain:
so you want to get back now..if you dont really know how...
|---------------------------------------------------------|
|---------------------------------------------------------|
|-----9---------------------------------------------------|
|-----9----------------------------7----------------------|
|-----7----------------------------7----------------------|
|----------------------------------5----------------------|




[ Tab from: http://www.guitartabs.cc/tabs/m/mxpx/on_the_outs_tab.html ]
you try everthything and nothing is working..
|--------------------------------------------|
|--------------------------------------------|
|---6----------------------------------------|
|---6----------9-----------------5-----------|
|---4----------9-----------------5-----------|
|--------------7-----------------3-----------|

what would be your first clue..that she dont really like you...
|--------------------------------------------------------------|
|--------------------------------------------------------------|
|--9-----------------------------------------------------------|
|--9---------------------------------7-------------------------|
|--7---------------------------------7-------------------------|
|------------------------------------5-------------------------|

the situation never have much to say.....
|----------------------------------------|
|----------------------------------------|
|--6-------------------------------------|
|--6------------9-----------6------------|
|--4------------9-----------6------------|
|---------------7-----------4------------|




chorus/intro:
on the outs..when she dont like you anymore
on the outs..your pictures shattered on the floor
|-------------------------------------------|
|-------------------------------------------|
|-------------------------------------------|
|-8-10s12-12s12(3x)-13-12-13s10-------------|
|-------------------------------------------|
|-------------------------------------------|


On the outs..your closet scattered at the door
on the outs..when things just like Dont seen before

  (repeat the refrain chords)
bridge;
i need your reason.......................
|------------------------------------------------|
|------------------------------------------------|
|------------------------------------------------|
|---------7--------------9-----------------------|
|-4-------5--------9-----7-----------------------|
|-2----------------7-----------------------------|


i dont know the last part of the song....
plese rate my tabs.....
thanx.....

e-mail me; gian02_carlo@yahoo.com

PunKzzzzzzzzzzzzzzzzzzzzzzzzz