Mxpx - My Mistake Chords & Tabs

 

My Mistake Chords & Tabs

Mxpx Chords & Tabs

Version: 1 Type: Tab 0 ratings
1 star 2 stars 3 stars 4 stars 5 stars
comments

My Mistake Tab

Song: My Mistake
Artist: MxPx
Album: 10 Years and Running
Tabbed By: Tony L. (Mackin_4_ever@hotmail.com)
Tuning: Standard

Intro (4xs)
E --2-2-2-3-2---------------------
B ----------3---------------------
G --------------------------------
D --------------------------------
A --------------------------------
E --------------------------------

Verse (2xs) - As always, you can figure out the strumming on your own
"I broke everything we had...."
E --------------------------------
B --------------------------------
G --7--------5-----5--XXX---------
D --7--7--5--5--8--5--XXX---------
A --5--7--5--7--8--7--XXX---------
E -----5--3-----6-----XXX---------

Second time through end on first cord then pick scrape

Chorus:
"When I said goodbye..."
E --------------------------------
B --------------------------------
G --------7--9--11-9--------------
D --5--8--X--X--X--X--5--7--------
A --5--8--5--7--9--7--5--7--------
E --3--6--------------3--5--------

Intro (2xs)

This Time:
"When I told you to go..."
E -----------------------------------------------------------------
B -----------------------------------------------------------------
G -----------4-----------------------------------------------------
D --5--8--4--4--5--7-----------------------------------------------
A --5--8--4--2--5--7-----------------------------------------------
E --3--6--2-----3--5-----------------------------------------------

Intro (2xs) but on the second time its
E --2-2-2-3-2-----------------------
B --------------------------------
G --------------------------------
D --------------------------------
A --------------------------------
E --------------------------------

Verse (2xs)
"I broke down inside my mind..."
E --------------------------------
B --------------------------------
G --7--------5-----5--XXX---------
D --7--7--5--5--8--5--XXX---------
A --5--7--5--7--8--7--XXX---------
E -----5--3-----6-----XXX---------
[ Tab from: http://www.guitartabs.cc/tabs/m/mxpx/my_mistake_tab.html ]
Second time through end on first cord then pick scrape

Chorus
"When I said goodbye..."
E --------------------------------
B --------------------------------
G --------7--9--11-9--------------
D --5--8--X--X--X--X--5--7--------
A --5--8--5--7--9--7--5--7--------
E --3--6--------------3--5--------

Intro (2xs)

"When I told you to go..."
E -----------------------------------------------------------------
B -----------------------------------------------------------------
G -----------4-----------------------------------------------------
D --5--8--4--4--5--7-----------------------------------------------
A --5--8--4--2--5--7-----------------------------------------------
E --3--6--2-----3--5-----------------------------------------------

Intro (4xs)

Interlude - Not too sure about this part, 
I just fiddle around like this (Or Improv):
E --2-2---------------------------
B ---3-3--------------------------
G --------------------------------
D ------------------------------7-
A ------------------------------7-
E ------------------------------5-

Pickscrape again

Chorus:
"When I said goodbye..."
E --------------------------------
B --------------------------------
G --------7--9--11-9--------------
D --5--8--X--X--X--X--5--7--------
A --5--8--5--7--9--7--5--7--------
E --3--6--------------3--5--------

Intro (2xs)

"When I told you to go..."
E -----------------------------
B -----------------------------
G -----------4-----------------
D --5--8--4--4-----4--5--7-----
A --5--8--4--2-----4--5--7-----
E --3--6--2--------2--3--5-----

Intro (2xs)

"That was my mistake..."
E -----------------------------
B -----------------------------
G --------4--------------------
D --5--7--4--4--5--7-----------
A --5--7--2--4--5--7-----------
E --3--5-----2--3--5-----------

Intro (3xs)

End on:
E --------
B --------
G --5-----
D --5-----
A --7-----
E --------

Its a pretty easy song, only took me a few minutes to figure out.
This should be 100% right ('Cept that interlude)
Comments