Mxpx - My Mistake Chords & Tabs

 

My Mistake Chords & Tabs

Mxpx Chords & Tabs

Version: 3 Type: Bass Tab 0 ratings
1 star 2 stars 3 stars 4 stars 5 stars
comments

My Mistake Bass Tab

-----------------------------------------------------------------------------
                            My Mistake - MxPx
-----------------------------------------------------------------------------

Artist: MxPx
Song: My Mistake (Track 2)
Albulm: Ten Years And Running 
Tabbed by: Zero is Great Man
E-mail: Benzero@verison.net
Tunning: EADG

Intro/Fill:"...Mistake."
G|------------------------------------------|
D|------------------------------------------|
A|-5-5-5-5----5-5-5-5----5-5-5-5----5-5-5-5-|
E|------------------------------------------|

Verse:
(Part 1)"I broke everything we had..."
G|----------------------------------------------------------------|
D|----------------------------------------------------------------|
A|-5-5-5-5--------------------5-5-5-5-----------------------------|
E|----------5-5-5-5--3-3-3-3-----------6-6-6-6--5-5-5-5-5-5-5-5-5-|
[ Tab from: http://www.guitartabs.cc/tabs/m/mxpx/my_mistake_btab_ver_3.html ]
(Part 2)"I broke every single rule..."
G|---------------------------------------------------------|
D|---------------------------------------------------------|
A|-5-5-5-5--------------------5-5-5-5-----------5-5----5-5-|
E|----------5-5-5-5--3-3-3-3-----------6-6-6-6-------------|

Chorus:
(Part 1)"When I said good bye..." [Go to Part 3, Then Fill]
D|------------------------------------|
A|-------------------5-5-5-5----------|
E|-3-3-3-3--6-6-6-6-----------7-7-7-7-|

(Part 2)"When I told you go..." [Go to Part 3, Then Fill]
G|------------------------------------|
D|------------------------------------|
A|----------------------------2-2-2-2-|
E|-3-3-3-3--6-6-6-6--2-2-2-2----------|

(Part 3)"That was my..."
G|------------------|
D|------------------|
A|------------------|
E|-3-3-3-3--5-5-5-5-|

Bridge:
"Time will heal, bruises fade..."
G|-------------|
D|-------------|
A|-5~----------|
E|----5~-3~-5~-|

Outro:
G|---------------------------------------------|
D|---------------------------------------------|
A|-5-5-5-5--5-5-5-5--5-5-5-5-------------------|
E|----------------------------10-10-10-10-10\0-|

| \ Slide down
| ~ Vibrato

=============================================================================
Comments